>
 >
Mayonaise 2

Mayonaise 2 Ukulele

Smashing Pumpkins - Mayonaise 2 chords, tabs, tablatures, lyrics

Guitar lessons | Add/correct | Request | Top 50 tabs Artists:  A B C D E F G H I J K L M N O P Q R S T U V W X Y Z 0-9

Mayonaise 2 Ukulele – Smashing Pumpkins

CD, Sheet music, Poster

Do you like Mayonaise 2? Share with your friends now
Bass TabsChordsChords v2Chords v3Chords v4Chords v5TabsTabs v2Tabs v3Tabs v4Tabs v5UkuleleUkulele v2
Pls use a Guitar Tuner..

TUning: Eb - 6th
        Bb - 5th
        Bb - 4th
        Gb - 3rd
        Bb - 2nd
        Db - 1st

Intro:  Verses :  (Strumming)

     Bb          G         Cm           Cm*
Db|---0----------0----------0------------0--------------------------|
Bb|---0----------0----------0------------0--------------------------|
Gb|---6----------3----------4------------8h9------------------------|2x
Bb|---0----------0----------0------------0--------------------------|
Bb|---7----------4----------0------------0--------------------------|
Eb|---7----------4----------0------------0--------------------------|
Verse 1
      Bb
Fool enough to almost be it
      G
Cool enough to not quite see it
Cm    Cm*  ------    Cm   Cm*       
Doomed

      Bb
Pick your pockets full of sorrow
      G
and run away with me tomorrow
Cm    Cm*  -----    Cm    Cm*
  June


refrains:
       C#m          G#m        Bb        Cm          E     G      E   G    G#m
Db|-----0------------0---------0----------0------||--0-----0------0---0-----0---------|
Bb|-----0------------0---------0----------0------||--0-----0------0---0-----0---------|
Gb|-----8------------4---------6----------4------||--1-----3------1---3-----4---------|
Bb|-----0------------0---------0----------0------||--0-----0------1---0-----0---------|
Bb|-----9------------5---------7----------0------||--2-----4------4---4-----5---------|
Eb|-----9------------5---------7----------0------||--2-----4------4---4-----5---------|
                                                        ( Last stanza)
Refrain : 1

 C#m           G#m      Bb       Cm     
We'll try.... and ease the pain
 C#m          G#m       Bb      Cm     
Somehow... ..we'll feel the same
       E           G     E    G      G #m                  
Well,.. no one knows ...where our secrets go


Verse 2
      Bb
I send a heart to all my dearies
      G
When your love is oh, so dreary
Cm   Cm*  ---   Cm  Cm*
 Dream
      Bb
I'm rumored to the straight and narrow
      G
While the harlots of my perils
Cm    Cm*  ---  Cm  Cm*
  Scream



 Bb         G          Cm  Cm*     Cm- Cm*
And I.... fail ....but when I can, I will
 Bb         G          Cm  Cm*     Cm- Cm*
Try to understand that when I can, I will

       Bb    Cm   Bb   E       A    D    C    
Db|----0------0---0----0-------0----0----0-----------------------------------|
Bb|----0------0---0----0-------3----0----0-----------------------------------|
Gb|----6------4---6----1-------4----9----8-----------------------------------|
Bb|----0------0---0----0-------5----0----0-----------------------------------|
Bb|----7------0---7----2-------5----10---9-----------------------------------|
Eb|----7------0---7----2-------0----10---9----- -----------------------------|

 Verse: 3

     Bb
Mother weep the years I'm missing
     G
All our time can't be given
Cm   Cm* ---   Cm  Cm*
Back

     Bb
Shut my mouth and strike the demons
     G
That cursed you and your reasons

     Cm
Out of hand and out of season
     Cm
Out of love and out of feeling     

verse: 4
  Bb      G
Sooo....  Bad
         Cm
When I can, I will
  Bb      G
Words defy the plans
         Cm
When I can, I will

Outro 
    Bb 
Fool enough to almost be it
    G
And cool enough to not quite see it
    Cm
And old enough to always feel this
    Cm
Always old, I’ll always feel this
    Bb
No more promise no more sorrow
    G
No longer will I follow
    Cm
Can anybody hear me
    Cm                 Bb        G
I....... just want to beeee me
     Cm        Cm
When I can I will
        Bb      G       
Try... to understand
      Cm           Cm            
That when I can, I will





Comments


Popular Smashing Pumpkins tabs & chords
Marquis In Spades Bass Tabs
Obscured Bass Tabs
Take Me Down Chords
Apathy's Last Kiss Tabs
Mayonaise 1 Tabs
Pug Tabs
Stumbeleine Tabs
The Sound Of Silence Tabs
Thirty Three Tabs
You're All I've Got Tonight 1 Tabs


Song lyrics



↑ Back to top | Tablatures and chords are parodies/interpretations of the original songs. You may use it for private study, scholarship, research or language learning purposes only
© 2014 AZChords.com Contact us | Privacy policy | DMCA | Add/correct tabs | Request tabs | Top 50 tabs