» » »

Rotten Apples Bass tabs (ver.4)

Artists:  A B C D E F G H I J K L M N O P Q R S T U V W X Y Z # 

Rotten Apples Bass tabs (ver.4)

Smashing Pumpkins
Rating:
0/5 (0 votes)
Tabs too difficult? Try these video lessons and learn fast.
                ================================================================================
                       S M A S H I N G   P U M P K I N S

                                       -

                           R O T T E N   A P P L E S
================================================================================


                             THE AEROPLANE FLIES HIGH
                             [Tonight Tonight Single]
                            (c) Virgin Records (1996)


                               Tune Down a 1/2 Step
                                   D# G#  C# F#

                                 Tempo = 100 BPM
                               Time Signature = 4/4



                          -----------------------------

                                 PADDY MCMULLAN

                                   Version 1.0
                               20th November 2010
                             -----------------------

                                   -----------
                                   Song Notes:
                                   -----------

   The entire song consists of a single riff with only a slight variation on
                                  final repeat.



================================================================================
Acoustic Bass
================================================================================


|_______________________________________[1,2,3]
||--------------------|---------------------| |
||--2------------4----|--0------------------|*|
||--------------------|-----------2----0----|*|
||--------------------|---------------------| |

|_______________________________________[4]
|-------------------|--------------------||
|-------------------|--------------------||
|-------------------|--------------------||
|--3----------------|--3----3------------||



The final repeat:


||---------------|---------------------|-------------------|-------------------|
||--2---------4--|--0------------------|-------------------|-------------------|
||---------------|-----------2----0----|-------------------|-------------------|
||---------------|---------------------|--3----------------|--(3)--------------|


|-------------------|-------------------|-------------------||
|-------------------|-------------------|-------------------||
|-------------------|-------------------|-------------------||
|--(3)--------------|--(3)--------------|--(3)--------------||



================================================================================
End
================================================================================


Tab summary:        Repeat the riff 7 times, then play the final repeat once

                    END
            
Tabs too difficult? Try these video lessons and learn fast.


comments powered by Disqus
↑ Back to top | Tablatures and chords are parodies/interpretations of the original songs. You may use it for private study, scholarship, research or language learning purposes only