» » »

Youe Wondering Now Bass tabs (ver.1)

Artists:  A B C D E F G H I J K L M N O P Q R S T U V W X Y Z # 

Youe Wondering Now Bass tabs (ver.1)

Specials
Rating:
0/5 (0 votes)

Tabs too difficult? Try these video lessons and learn fast.
                ---------------------------4-6-4- 
-----------2---2-2-----2-6------- 
-0-----0-4---4------------------- 
--------------------------------- 

-----------2---2---------------------------------
-0-----0-4---4-------------2---2-----------2---2-
-----------------0-----0-4---4---0-----0-4---4---
-------------------------------------------------

Some small variations
            
Tabs too difficult? Try these video lessons and learn fast.




comments powered by Disqus
↑ Back to top | Tablatures and chords are parodies/interpretations of the original songs. You may use it for private study, scholarship, research or language learning purposes only