» » »

Bonghits For Breakfast Tabs (ver.1)

Artists:  A B C D E F G H I J K L M N O P Q R S T U V W X Y Z # 

Bonghits For Breakfast Tabs (ver.1)

Staind
Rating:
5/5 (1 vote)

Tabs too difficult? Try these video lessons and learn fast.
                I myself when playing it usually put together Aaron's and the J-CAT version but, meh. 
give you Aaron's version (lot easier for me! =P) Well, at least this is what I believe to 
Aaron's version watching the video about 10 times.

Obviously, half a step down.

eb| -------------------------------|
Bb| -----8---------8---------------|
Gb| -----7---------7---------------|
Db| -------------------------------|
Ab| --7-----0----------------------|
Eb| --0-----0---66-----------------|

eb| ------------------------0000---|
Bb| --777----888---666------3333---|
Gb| --666----777---555------2222---|
Db| --666----777---555------2222---|
Ab| ------------------------0000---|
Eb| -------------------------------|


Ending:

eb  -----------------------0000---0-----|
Bb --777----888---666------3333---4-----|
Gb --666----777---555------2222---3-----|
Db --666----777---555------2222---3-----|
Ab ------------------------0000---0-----|
Eb  ------------------------------------|


for the timing and such, and if I accidently left something out, or you think something 
right, or you have a question, please feel free to ask!
            
Tabs too difficult? Try these video lessons and learn fast.


comments powered by Disqus
↑ Back to top | Tablatures and chords are parodies/interpretations of the original songs. You may use it for private study, scholarship, research or language learning purposes only