» » »

Doin Time Bass tabs (ver.2)

Artists:  A B C D E F G H I J K L M N O P Q R S T U V W X Y Z # 

Doin Time Bass tabs (ver.2)

Sublime
Rating:
0/5 (0 votes)

Tabs too difficult? Try these video lessons and learn fast.
                Sublime:
Doin’ Time

Verse:

G|----------------------|
D|----------------------|
A|-----------5---3-6-5--|
E|-3-3-3-3-6---6------6-|

Chorus:
G|---------------------------------|
D|----5-5-------5-5----6-3---6-5---|
A|-3-3----3-3-7------------5-----5-|
E|-----------------5---------------|

I’m a big Sublime and I enjoy writing out tabs for them so here is Doin’ Time - Sublime
            
Tabs too difficult? Try these video lessons and learn fast.




comments powered by Disqus
↑ Back to top | Tablatures and chords are parodies/interpretations of the original songs. You may use it for private study, scholarship, research or language learning purposes only