» » »

Santeria Tabs (ver.4)

Artists:  A B C D E F G H I J K L M N O P Q R S T U V W X Y Z # 

Santeria Tabs (ver.4)

Sublime
Rating:
0/5 (0 votes)

Tabs too difficult? Try these video lessons and learn fast.
                I've seen this solo tabbed incorrectly on so many sites, I just had to do something.
This is the correct way to play the 'Santeria' solo.

-------------9-11b12r11-11-9-8v-8\6-8b9r8v-6-6p4---4--------------------------
--------9-11-------------------------------------6---4-2h4p2---2--------------
-7-9/11------------------------------------------------------4---4v-----------
                                                                              

-----------------------9------------------------------------------------------
-----------------5-12b---12p9-------------------------------------------------
-------------4h6--------------11b-9----9--------------------------------------
-------4h5h6------------------------11---11-9---------9-------------10----10--
-2h3h4----------------------------------------11-9h11---11\9-7-9/11----11-11--
                                                                              

-----9---------9--------------------------------------------------------------
-11b---9---11b---9---11b------------------------------------------------------
-11b-----9-11b-----9-11b------------------------------------------------------
                         There you have it.  That's it for the solo.
            
Tabs too difficult? Try these video lessons and learn fast.


comments powered by Disqus
↑ Back to top | Tablatures and chords are parodies/interpretations of the original songs. You may use it for private study, scholarship, research or language learning purposes only