» » »

Seed Bass tabs (ver.3)

Artists:  A B C D E F G H I J K L M N O P Q R S T U V W X Y Z # 

Seed Bass tabs (ver.3)

Sublime
Rating:
0/5 (0 votes)
Tabs too difficult? Try these video lessons and learn fast.
                
Band: Sublime

Okay, here we go.  First, all the notes are there, I just did not tab out the
exact number of notes to play when the music is going fast because it would be a
waste of time to sit there and count them all.  As with all Sublime songs, just
listen very close to get the rythm and timing down, especially on the outro.  
Also the X on the tab means fret 10.  This song is a lot of fun to play and sing
along.


Intro (PART A)
G:--------------------------------------
D:--------------------------------------
A:--------------------------------------
E:-5555555-3-1111111-3333333------------

Verse (PART B)
Play the first half slow, and haul ass on the second!
G:-------------------|--------------------------
D:-------------------|----------------3-5-------
A:-3---33-2-0-0------|--5-----5---3-------3-----
E:---3----------3-1--|----5h7---3---5-----------

Fast Part (PART C)
G:----------------------------
D:----------------------------
A:-3-------5-----3h5----------
E:---5-3-1---3-5--------------

Rock Part (PART D)
G:----------|---------------------
D:----------|---------------------
A:-3---5----|----------1----------
E:---5---3--|--1-3-1-3---1-5------

Verse 2 (PART E)
Play the whole thing slow this time.
G:-------------------------------------------------------------
D:-------------------------------------------------------------
A:-3---3-2-0-0-----5-5-----5---3-3-3-3-0-0-----5-5-----5-------
E:---3---------3-1-----5h7---3-------------3-1-----5h7---3-----

Guitar Solo (PART F) Im not 100% sure about this, but it is close.
G:---------5---5-----------------------
D:-7-3---3---3---3-7/x-9-3-6-5-3-------
A:-----3-------------------------3-----
E:-------------------------------------

Outro (PART G)
Basically a long variation of the verse. Play first part slow, second part fast.
G:------------------|-----------------------------------------------------
D:------------------|-----------------------------------------------------
A:-3---3-3-0-0------|-5-----5---5---3--2-0-------0-3-2-0---3---3---5------
E:---3---------3-1--|---5h7---3---3---3----3-1-3---------1---1---3---5/x\-

Outro (cont.)
G:-----------------------------
D:-----------------------------
A:-3-0-5---3-0---------1-------
E:-------3-----1-3-1-3---1-5---
Eric also does some hammer on stuff there at the end.

Song Structure
PART A
PART B
PART A
PART E
PART C
PART D
PART F
PART A
PART G
            
Tabs too difficult? Try these video lessons and learn fast.


comments powered by Disqus
↑ Back to top | Tablatures and chords are parodies/interpretations of the original songs. You may use it for private study, scholarship, research or language learning purposes only