>
 >
Smoke Two Joints

Smoke Two Joints Ukulele

Sublime - Smoke Two Joints chords, tabs, tablatures, lyrics

Guitar lessons | Add/correct | Request | Top 50 tabs Artists:  A B C D E F G H I J K L M N O P Q R S T U V W X Y Z 0-9

Smoke Two Joints Ukulele – Sublime

CD, Sheet music, Poster

Do you like Smoke Two Joints? Share with your friends now
Bass TabsChordsChords v2TabsTabs v2Tabs v3Ukulele
A  A  A  Dm  Dm  Dm  (3x)

A  A  A                                             G   G#  A


e|------5------------------------8-8-8-0-0-7--8-7-5-------------|
B|--------8-5---------------------------------------------------|
G|--7b9-------7b9-7p5-------------------------------------------|
D|--------------------7-5----------------------------5-/-6-/-7--|
A|------------------------7b8r7----------------------5-/-6-/-7--|
E|---------------------------------------------------3-/-4-/-5--|



Verse 1

A
I smoke two joints in the morning
F                          G
I smoke two joint at night
A
I smoke two joint in the afternoon
F                        G
It makes me feel alright
A
I smoke two joints in time of peace
F                      G
And two in time of war
A
I smoke two joints before I smoke two joints
F                         G G#
And then I smoke two more

A        F     G G#
A        F     G G#

Break (same chord progression)

"smoked cigarettes 'til the day she died,
toke a big spliff of some good sensimillia
smoked cigarettes 'til the day she died
toke a big spliff of some good sensamill..."
"Easy-E were ya ever caught slippin'?" "hell no!"


Verse 2

A
Daddy he once told me,
          F                    G
"Son, you be hard workin' man"
A
And momma she once told me,
        F                     G
"Son, you do the best you can"
G
Then one day I meet a man,
  F
He came to me and said yes.
G                F
"Hard work good and Hard work fine,
    E
but first take care of head"


Solo


e|-8-8-8-0-0-7--8-7-5---------8-8-8-0-0-7--8-7-5--17b18r17~--|
B|-----------------------------------------------------------|
G|---------------------7b9r7---------------------------------|
D|-----------------------------------------------------------|
A|-----------------------------------------------------------|
E|-----------------------------------------------------------|



    G A        G A        C D
e|------------------------------------------------------8-----|
B|-------------------------------------------------8-10---10--|
G|-----------------------------------------5-7-7/9------------|
D|----------------------------5-/-7-7-7-7---------------------|
A|--5-/-7-7-7-7--5-/-7-7-7-7--3-/-5-5-5-5---------------------|
E|--3-/-5-5-5-5--3-/-5-5-5-5----------------------------------|

  
 
Whoa rock me to the night
Ja say

A  A  A  A  Dm  Dm  Dm  Dm   (3x)

A  A  A  A  Dm  G   G#  A    (1x)





Comments


Popular Sublime tabs & chords
89 Vision Bass Tabs
Stp Bass Tabs
89 Vision Tabs
Ain't No Prophet Tabs
Under My Voodoo Tabs
What I Got 11 Tabs
What I Got 9 Tabs
Hope Ukulele
Slow Ride Ukulele
Superstar Punani Ukulele


Song lyrics



↑ Back to top | Tablatures and chords are parodies/interpretations of the original songs. You may use it for private study, scholarship, research or language learning purposes only
© 2014 AZChords.com Contact us | Privacy policy | DMCA | Add/correct tabs | Request tabs | Top 50 tabs