» » »

Wrong Way Bass tabs (ver.3)

Artists:  A B C D E F G H I J K L M N O P Q R S T U V W X Y Z # 

Wrong Way Bass tabs (ver.3)

Sublime
Rating:
0/5 (0 votes)
Tabs too difficult? Try these video lessons and learn fast.
                ----------------------------------------------------------------------
			 WRONG WAY - Sublime
----------------------------------------------------------------------

intro
G----------------------------------|
D----------------------------------|
A-----------5----5-5------------5--|
E-0----0-0------------0----0-0-----|

verse riff 1 3x
G-----------------|-----------------|
D---------5-5-6-7-|---------3-3-4-5-|
A-----7-7---------|-----5-5---------|
E-5-5-------------|-3-3-------------|

change 1
G-----------------|-----------------|
D---------5-5-6-7-|---------7-7-8-9-|
A-----7-7---------|-----9-9---------|
E-5-5-------------|-7-7-------------|

chorus
G---------------|-----------|---------------|-----------|
D-----11-11-----|-----8h9---|-----11-11-----|-----9-9---|
A-9-9-----------|-7-7-------|-9-9-----------|-7-7-------|
E-----------9-9-|---------7-|-----------9-9-|---------7-|

G---------------|
D-----11-11-----|
A-9-9-----------|
E-----------9-9-|

G-------------|-----------|-------------|
D-----9-9-----|-----7-7---|-----9-9-----|
A-7-7---------|-9-9-------|-7-7---------|
E---------7-7-|---------9-|---------7-0-|

verse riff 2a 1x
G---------------|-----------------|
D-------7-7-8-9-|---------5-5-6-7-|
A---9-9---------|-----7-7---------|
E-7-------------|-5-5-------------|

verse riff 2b 2x
G-----------------|-----------------|
D---------7-7-8-9-|---------5-5-6-7-|
A-----9-9---------|-----7-7---------|
E-7-7-------------|-5-5-------------|

change 2
G-----------------|---------------------|
D---------7-7-8-9-|-----------9-9-10-11-|
A-----9-9---------|-----11-11-----------|
E-7-7-------------|-9-9-----------------|

chorus 2
G-------------|-------------|-----------|-----------|-------------|
D-----9-9-----|-----7-7-----|-----8h9---|-----7-7---|-----9-9-----|
A-7-7---------|-5-5---------|-7-7-------|-5-5-------|-7-7---------|
E---------7-7-|---------5-5-|---------7-|---------5-|---------7-7-|

G-------------|-----------|-------------|
D-----7-7-----|-----9-9---|-----5-5-5---|
A-5-5---------|-7-7-------|-5-5---------|
E---------5-5-|---------7-|-----------0-|

verse riff 1
change 1

chorus 3(w/trumpet)
G-----------------|---------------|---------------|-------------|
D-----10h11-10h11-|-----7h9-7h9---|-----9h11-9h11-|-----9-9-----|
A-9-9-------------|-7-7-----------|-9-9-----------|-7-7---------|
E-----------------|---------------|---------------|---------7-7-|

G---------------|---------------|---------------|
D-----9h11-9h11-|-----9h11-9h11-|---11-11-11-11-|
A-9-9-----------|-7-7-----------|-9-------------|
E---------------|---------------|---------------|

G---11----13----14----13-|
D------------------------|
A-9----11----12----11----|
E------------------------|

verse riff 2a
verse riff 2b
change 2

chorus 4
G--------------|-----------|-------------|-------------|
D------9-9-----|-----7-7---|-----9-9-----|-----7-7-----|
A-77-7---------|-5-5-------|-7-7---------|-5-5---------|
E----------7-7-|---------5-|---------7-7-|---------5-5-|

G-------------|-------------|-----------|------------|
D-----9-9-----|-----7-7-----|-----9-9---|-----7-7----|
A-7-7---------|-5-5---------|-7-7-------|-5-5--------|
E---------7-7-|---------5-5-|---------7-|---------5/-|

verse riff 2b 3x

ending         slow down
G-----------------|------------|
D---------7-7-8-9-|------------|
A-----9-9---------|------------|
E-7-7-------------|-10-0-10-10-|

Have Fun!
            
Tabs too difficult? Try these video lessons and learn fast.


comments powered by Disqus
↑ Back to top | Tablatures and chords are parodies/interpretations of the original songs. You may use it for private study, scholarship, research or language learning purposes only