» » »

Give Into Me Tabs (ver.2)

Artists:  A B C D E F G H I J K L M N O P Q R S T U V W X Y Z # 

Give Into Me Tabs (ver.2)

Takida
Rating:
4/5 (3 votes)

Tabs too difficult? Try these video lessons and learn fast.
                                              give into me - Takida


x muted
h hammer
/slide
^ bend up

intro:
e|-------------------------------------------------------------|
b|-5-4-0-------5-4-0--------5-4-0--------5-4-0------5-4-0------|
g|--------------------6-------------------------4--------------|
d|--------7-----------6-------------7-----------4--------------|
a|--------7-----------4-------------7-----------2--------------|
e|--------5-------------------------5--------------------------|


verse:
        I'm falling down on you,where are you from  ,what else can i do
        if i loose it all      would you go down on me, i don't even know
e|---------------------------------------------------------------------------|
b|---------------------------------------------------------------------------|
g|---------------------------6666-------------------------------------66-----|
d|----7777-------------------6666----------------7777-----------------66-----|
a|----7777-------------------4444----------------7777-----------------44-----|
e|----5555---------------------------------------5555------------------------|

you're so beautiful how can I go on 
the things you want me to see
e|--------------------------------------------------|
b|--------------------------------------------------|
g|--------6-------------4---------------------------|
d|--------6-------------4----------7777-------------| and continues all verses
a|--------4-------------2----------7777-------------|
e|---------------------------------5555-------------|


middleplay:

  Waiting for you, Thinking of you, Give into me, i'll make you blue
e|--------------------------------------------------------------------------|
b|--------------------------------------------------------------------------|
g|---666---------------666------------666-----------------------------------|
d|---666---------------666------------666-----------------------------------|
a|---444---------------444------------444-----------------------------------|
e|--------------------------------------------------------------------------|

chorus:
    I              wanna know you feel the same
    your mine      ridin high like an aeroplane
e|--------------------------------------------------------|
b|--------------------------------------------------------|
g|---6666-----------------------------------4444----------|
d|---6666---7777---------2222---------------4444----------|
a|---4444---7777---------2222---------------2222----------|
e|----------5555---------0000-----------------------------|

verse:

I wanna give you what you need, 
But I don't dare to ask 
I got no self-esteem, 
I don't blame my past

middleplay:

Waiting for you 
Thinking of you 
Give into me, I'll make you blue 

chorus:

I wanna know if you feel the same 
You’re mine, I'm ridin high like an aero plane 


solo
first guitar
e|--------------------------------------------------------------------------|
b|--------------------------------------------------------------------------|
g|--------------------------------------------------------------------------|
d|-5xxxxxx6xx6xx6--5xxxxxx6xx6xx6---10xxxxxx11xx11xx11--10xxxxxx11xx11xx11--|
a|-5xxxxxx6xx6xx6--5xxxxxx6xx6xx6---10xxxxxx11xx11xx11--10xxxxxx11xx11xx11--|
e|-3xxxxxx4xx4xx4--3xxxxxx4xx4xx4---8-xxxxxx9-xx9-xx9---8-xxxxxx9-xx9-xx9---|

on the second time comes second guitar..

second guitar
e|--------------------------------------------------------------------------|
b|--------------------------------------------------------------------------|
g|--------------------------------------------------------------------------|
d|--------------------------------------------------------------------------|
a|--------------------------------------------------------------------------|
e|-3333334334334-3333334334334---8888881188118811--8888881188118811---------|


first guitar solo
e|----------------------------------------|
b|----------------------------------------|
g|----------------------------------------|    under solo plays the chorus riff!
d|-11-11-11h13-14-13-11-9-7h9-9-7-9-11-9--|
a|----------------------------------------|
e|----------------------------------------|


e|-------------------------------------------------------------|
b|--------------------------------9-9-9-10-7-7-----------------|
g|---------------------------------------------9-7-5^--5h7-5^--|
d|-9/11-11-11-11h13-14-13-11-9-11------------------------------|
a|-------------------------------------------------------------|
e|-------------------------------------------------------------|


e|--------------------------------------------------|
b|--------------------------------------------------|
g|-5-7/9-9-11--11/13-11--15^-13-11-9--11/13-11------|
d|--------------------------------------------------|
a|--------------------------------------------------|
e|--------------------------------------------------|



e|-------------------------------|
b|-------------------------------|
g|-------------------------------| play this 4 times
d|--7777--7-5--------------------|
a|--7777--7-5--------3-----------|
e|--5555--9-3--3-3-5---5---------|

then comes 

chorus x2

I wanna know if you feel the same 
You’re mine, I'm ridin high like an aero plane
            
Tabs too difficult? Try these video lessons and learn fast.




comments powered by Disqus
↑ Back to top | Tablatures and chords are parodies/interpretations of the original songs. You may use it for private study, scholarship, research or language learning purposes only