» » »

30 Minutes Tabs (ver.1)

Artists:  A B C D E F G H I J K L M N O P Q R S T U V W X Y Z # 

30 Minutes Tabs (ver.1)

T.A.T.U
Rating:
0/5 (0 votes)

Tabs too difficult? Try these video lessons and learn fast.
                The intro follows the the piano, whereas the verse and the chorus follows the 
vocals. I couldn't figure out the keys/synth in the verse/chorus, but I'll try and 
figure them out and add them when I can.

Intro
e|-13--------13-15-16-15-13-15-12~---13------15-16-13-15-12~-------|
B|---13-11~----------------------------13-11-----------------------|
G|-----------------------------------------------------------------|
D|-----------------------------------------------------------------|
A|-----------------------------------------------------------------|
E|-----------------------------------------------------------------|

e|-13--------13-15-16-15-13-15-12~---13------15-16-13-15~----------|
B|---13-11~----------------------------13-11-----------------------|
G|-----------------------------------------------------------------|
D|-----------------------------------------------------------------|
A|-----------------------------------------------------------------|
E|-----------------------------------------------------------------|

Verse
e|-15-16-13--------|-----------------|-15--------------|-----------------|
B|-----------------|-13-11-13--------|----11-13--------|-13-11-13--------|
G|-----------------|-----------------|-----------------|-----------------|
D|-----------------|-----------------|-----------------|-----------------|
A|-----------------|-----------------|-----------------|-----------------|
E|-----------------|-----------------|-----------------|-----------------| 
   "Out of sight"    "Out of mind"     "Out of time"     "To decide"

e|-15-16-----------|-----------------|-15-16-----------|-15-16-----------|
B|-------14--------|-14-13-14--------|-------14--------|-------13--------|
G|-----------------|-----------------|-----------------|-----------------|
D|-----------------|-----------------|-----------------|-----------------|
A|-----------------|-----------------|-----------------|-----------------|
E|-----------------|-----------------|-----------------|-----------------|
   "Do we run?"      "Should I hide?"  "For the rest"    "Of my life"

e|-15-16-13--------|-----------------|-15--------------|-----------------|
B|-----------------|-13-11-13--------|----11-13--------|-13-11-13--------|
G|-----------------|-----------------|-----------------|-----------------|
D|-----------------|-----------------|-----------------|-----------------|
A|-----------------|-----------------|-----------------|-----------------|
E|-----------------|-----------------|-----------------|-----------------| 
   "Can we fly?"     "Do I stay?"      "We could lose"   "We could fail"

e|-15-16-----------|-----------------|-15-16-----------|-15-16-----------|
B|-------14--------|-14-13-14--------|-------14--------|-------13--------|
G|-----------------|-----------------|-----------------|-----------------|
D|-----------------|-----------------|-----------------|-----------------|
A|-----------------|-----------------|-----------------|-----------------|
E|-----------------|-----------------|-----------------|-----------------|
   "In the mo-"      "-ment it takes"  "To make plans"   "Or mistakes"

Chorus
e|-16-15-16----------16-15-16----|--16-15-16-----------------------|
B|----------13-13-13-------------|-----------14-14-14--------------|
G|-------------------------------|--------------------15-14-15-----|
D|-------------------------------|---------------------------------|
A|-------------------------------|---------------------------------|
E|-------------------------------|---------------------------------|
  "30 minutes, a blink of an eye"  "30 minutes to alter our lives"

e|-16-15-16----------16-15-16----|--16-15-16-----------------------|
B|----------13-13-13-------------|-----------14-14-14--------------|
G|-------------------------------|--------------------15-14-15-----|
D|-------------------------------|---------------------------------|
A|-------------------------------|---------------------------------|
E|-------------------------------|---------------------------------|
 "30 minutes, to make up my mind"  "30 minutes to finally decide"

e|-16-15-16----------16-15-16----|--16-15-16-----------------------|
B|----------13-13-13-------------|-----------14-14-14--------------|
G|-------------------------------|--------------------15-14-15-----|
D|-------------------------------|---------------------------------|
A|-------------------------------|---------------------------------|
E|-------------------------------|---------------------------------|
 "30 minutes, to whisper your name, 30 minutes to shoulder the blame"

e|-16-15-16----------16-15-16----|--16-15-16-----------------------|
B|----------13-13-13-------------|-----------14-14-14--------------|
G|-------------------------------|--------------------15-14-15-----|
D|-------------------------------|---------------------------------|
A|-------------------------------|---------------------------------|
E|-------------------------------|---------------------------------|
 "30 minutes of bliss, 30 lies"   "30 minutes to finally decide"

Pre-Verse
e|-13--------13-15-16-15-13-15-12~---13------15-16-13-15-12~-------|
B|---13-11~----------------------------13-11-----------------------|
G|-----------------------------------------------------------------|
D|-----------------------------------------------------------------|
A|-----------------------------------------------------------------|
E|-----------------------------------------------------------------|

e|-13--------13-15-16-15-13-15-12~---13------15-16-13-15~----------|
B|---13-11~----------------------------13-11-----------------------|
G|-----------------------------------------------------------------|
D|-----------------------------------------------------------------|
A|-----------------------------------------------------------------|
E|-----------------------------------------------------------------|

Verse
e|-15-16-13--------|-----------------|-15--------------|-----------------|
B|-----------------|-13-11-13--------|----11-13--------|-13-11-13--------|
G|-----------------|-----------------|-----------------|-----------------|
D|-----------------|-----------------|-----------------|-----------------|
A|-----------------|-----------------|-----------------|-----------------|
E|-----------------|-----------------|-----------------|-----------------| 
   "Carousels"        "In the sky"     "That we shape"   "With our mind"

e|-15-16-----------|-----------------|-15-16-----------|-15-16-----------|
B|-------14--------|-14-13-14--------|-------14--------|-------13--------|
G|-----------------|-----------------|-----------------|-----------------|
D|-----------------|-----------------|-----------------|-----------------|
A|-----------------|-----------------|-----------------|-----------------|
E|-----------------|-----------------|-----------------|-----------------|
   "Under Shades"    "Silhouettes"     "Casting shade"    "Crying rain"

e|-15-16-13--------|-----------------|-15--------------|-----------------|
B|-----------------|-13-11-13--------|----11-13--------|-13-11-13--------|
G|-----------------|-----------------|-----------------|-----------------|
D|-----------------|-----------------|-----------------|-----------------|
A|-----------------|-----------------|-----------------|-----------------|
E|-----------------|-----------------|-----------------|-----------------| 
   "Can we fly?"     "Do I stay?"      "We could lose"   "We could fail"

e|-15-16-----------|-----------------|-15-16-----------|-15-16-----------|
B|-------14--------|-14-13-14--------|-------14--------|-------13--------|
G|-----------------|-----------------|-----------------|-----------------|
D|-----------------|-----------------|-----------------|-----------------|
A|-----------------|-----------------|-----------------|-----------------|
E|-----------------|-----------------|-----------------|-----------------|
   "Either way"      "Options change"  "Chances Fail"    "Trains derail"

Chorus
e|-16-15-16----------16-15-16----|--16-15-16-----------------------|
B|----------13-13-13-------------|-----------14-14-14--------------|
G|-------------------------------|--------------------15-14-15-----|
D|-------------------------------|---------------------------------|
A|-------------------------------|---------------------------------|
E|-------------------------------|---------------------------------|
  "30 minutes, a blink of an eye"  "30 minutes to alter our lives"

e|-16-15-16----------16-15-16----|--16-15-16-----------------------|
B|----------13-13-13-------------|-----------14-14-14--------------|
G|-------------------------------|--------------------15-14-15-----|
D|-------------------------------|---------------------------------|
A|-------------------------------|---------------------------------|
E|-------------------------------|---------------------------------|
 "30 minutes, to make up my mind"  "30 minutes to finally decide"

e|-16-15-16----------16-15-16----|--16-15-16-----------------------|
B|----------13-13-13-------------|-----------14-14-14--------------|
G|-------------------------------|--------------------15-14-15-----|
D|-------------------------------|---------------------------------|
A|-------------------------------|---------------------------------|
E|-------------------------------|---------------------------------|
 "30 minutes, to whisper your name, 30 minutes to shoulder the blame"

e|-16-15-16----------16-15-16----|--16-15-16-----------------------|
B|----------13-13-13-------------|-----------14-14-14--------------|
G|-------------------------------|--------------------15-14-15-----|
D|-------------------------------|---------------------------------|
A|-------------------------------|---------------------------------|
E|-------------------------------|---------------------------------|
 "30 minutes of bliss, 30 lies"   "30 minutes to finally decide"

e|--16-15-16--|
B|------------|
G|------------|
D|------------|
A|------------|
E|------------|x9
  "To decide"
            
Tabs too difficult? Try these video lessons and learn fast.


comments powered by Disqus
↑ Back to top | Tablatures and chords are parodies/interpretations of the original songs. You may use it for private study, scholarship, research or language learning purposes only