>
 >
All About Us

All About Us Guitar Tabs

T.A.T.U - All About Us chords, tabs, tablatures, lyrics

Guitar lessons | Add/correct | Request | Top 50 tabs Artists:  A B C D E F G H I J K L M N O P Q R S T U V W X Y Z 0-9

All About Us Guitar Tabs – T.A.T.U

CD, Sheet music, Poster

Do you like All About Us? Share with your friends now
ChordsTabsUkulele
t.A.t.U. ALL ABOUT US
************************************* 

Day Tabbed= 15.11.06
Please mail me for anithyng concerning the tab  

1/2 Step Down 

    VERSE
e |--------------------------------------------------------------------------------|
B |--------------------------------------------------------------------------------|
G |-------------------------------------------------------------6~-----------------|
D |-------6~-------6~-------6~-------6~-------2~-------2~-------6~-------4~--------|
A |-------6~-------6~-------6~-------6~-------2~-------2~---4-4-4~-------4~--------|
E |---4-4-4~---4-4-4~---4-4-4~---4-4-4~---0-0-0~---0-0-0~------------2-2-2~--------|
      . .      . .      . .      . .      . .      . .      . .      . .
  

e |--------------------------------------------------------------------------------|
B |--------------------------------------------------------------------------------|
G |---------------------------------------------------------6~~--------------------|
D |-------6~-------6~-------6~-------6~-------2~-------2~---6~---4~----------------|
A |-------6~-------6~-------6~-------6~-------2~-------2~---4~---4~----------------|
E |---4-4-4~---4-4-4~---4-4-4~---4-4-4~---0-0-0~---0-0-0~--------2~----------------|
      . .      . .      . .      . .      . .      . .     
     
     CHORUS  ( X 2 )
e |--------------------------------------------------------------------------------|
B |--------------------------------------------------------------------------------|
D |-----------------------------6-6-6-6-6-6-6-6-6-6-6-6------------------6~--------|
G |---6-6-6-6-6-6-6-6-6-6-6-6---6-6-6-6-6-6-6-6-6-6-6-6---4-4-4-4-4---0--6~--------|
A |---6-6-6-6-6-6-6-6-6-6-6-6---4-4-4-4-4-4-4-4-4-4-4-4---4-4-4-4-4---0--4~--------|
E |---4-4-4-4-4-4-4-4-4-4-4-4-----------------------------2-2-2-2-2----------------| 


     ( 0:46 )
e |---------------------------------------------------------------------------------|
B |---------------------------------------------------------------------------------|
D |------------------6--6------------------6--6------------------6--6---------------|
G |---6~-------------6--6---6~-------------6--6---6~-------------6--6---------------|
A |---6~-------------4--4---6~-------------4--4---6~-------------4--4---------------|
E |---4~-4-4-4-4-4----------4~-4-4-4-4-4----------4~-4-4-4-4-4----------------------| 
         . . . . .             . . . . .             . . . . .

                            ( 0:56 )
e |---------------------/----------------------|
B |---------------------/----------------------|
D |---------------------/----9~---/---11~------|
G |---6~----------------/----9~---/---11~------|
A |---6~----------------/----7~---/---9~-------|
E |---4~-4-4-4-4-4------/----------------------|
         . . . . .



Tablature Explanation 
*********************** 
   . = palm mute 
   / = slide 
   ~ = hold





Comments


Popular T.A.T.U tabs & chords
All The Things She Said Bass Tabs
All The Things She Said Chords
Fly On The Wall Chords
Gomenasai Chords
Jugoslavia Chords
Malchik Gay 1 Chords
Show Me Love 2 Chords
Dangerous And Moving Tabs
How Soon Is Now? 1 Tabs
Vremya Luni Tabs


Song lyrics



↑ Back to top | Tablatures and chords are parodies/interpretations of the original songs. You may use it for private study, scholarship, research or language learning purposes only
© 2014 AZChords.com Contact us | Privacy policy | DMCA | Add/correct tabs | Request tabs | Top 50 tabs