>
 >
Gomenasai

Gomenasai Ukulele

T.A.T.U - Gomenasai chords, tabs, tablatures, lyrics

Guitar lessons | Add/correct | Request | Top 50 tabs Artists:  A B C D E F G H I J K L M N O P Q R S T U V W X Y Z 0-9

Gomenasai Ukulele – T.A.T.U

CD, Sheet music, Poster

Do you like Gomenasai? Share with your friends now
ChordsTabsUkulele
Played in: Standard tuning



Intro:
Em D G C Em D G
C Em D G
C Em D G


G      D              G
What I thought wasn't mine
D       G
In the light
     D       Em
Was one of a kind,
  D        
A precious pearl
G      D         G
When I wanted to cry
  Fm             G
I couldn't cause I
D          Em
Wasn't allowed


Em C    G       D
Go menasai, for everything
Em C    G            D
Go menasai, I know I let you down
Em     C           G
Gomenasai till the end
        D         Em
I never needed a friend
     C    Cadd9
Like I do now


G      D              G
What I thought wasn't all
   C       
So innocent
G     D         G
Was a delicate doll
   C
Of porcelain
G      D              G
When I wanted to call you
    Fm          G
And ask you for help
  D       Em
I stopped myself


Em C    G       D
Go menasai, for everything
Em C    G            D
Go menasai, I know I let you down
Em     C           G
Gomenasai till the end
        D         Em
I never needed a friend
     C    Cadd9
Like I do now


Solo:
*you can play the intro for this part too
e|--------------------------------------------------|
B|--------------------------------------------------|
G|--9h11-12-9-12-11----11-12----12-14----14-16------|
D|------------------12--------12-------12-----------|
A|--------------------------------------------------|
E|--------------------------------------------------|

e|-------------------------------------|
B|-------------------------------------|
G|-----16-14----11-12-9-12-------------|
D|--12-------12------------10-10-------|
A|-------------------------------------|
E|-------------------------------------|

e|--------------------------------------------------|
B|--------------------------------------------------|
G|--9-11-12-9-12-11----11-12----12-14----14-16------|
D|------------------12--------12-------12-----------|
A|--------------------------------------------------|
E|--------------------------------------------------|

e|-------------------------------------|        
B|-------------------------------------|
G|-----16-14-12-11-12~-----------------|
D|--12---------------------------------|
A|-------------------------------------|
E|-------------------------------------|


G      D             G
What I thought was a dream
D
A mirage
G      D          Em
Was as real as it seemed
  D   
A privilege
G      D         G
When I wanted to tell you
  Fm        G
I made a mistake
  D      Em
I walked away


Em C    G        D
Go menasai, for everything
Em C    G       D
Go menasai, Gomenasai,
Em C    G           D        Em
Go menasai, I never needed a friend,
     C     Em
Like I do now
Em C     G      D
Go men nasai, I let you down


Em C     G       D
Go men nasai, Gomenasai
Em     C           G
Gomenasai till the end
        D         Em
I never needed a friend
     C    Em
Like I do now


(Guitar solo again)





Comments


Popular T.A.T.U tabs & chords
All The Things She Said 2 Chords
Clowns (Can You See Me Now?) Chords
Nich'ya Chords
Show Me Love 2 Chords
220 Intro Tabs
Cosmos Outer Space Intro 1 Tabs
Cosmos Outer Space Ukulele
How Soon Is Now Ukulele
Ne Ver Ne Bojsya Ne Prosi Ukulele
Show Me Love Ukulele


Song lyrics



↑ Back to top | Tablatures and chords are parodies/interpretations of the original songs. You may use it for private study, scholarship, research or language learning purposes only
© 2014 AZChords.com Contact us | Privacy policy | DMCA | Add/correct tabs | Request tabs | Top 50 tabs