» » »

How Soon Is Now Tabs (ver.1)

Artists:  A B C D E F G H I J K L M N O P Q R S T U V W X Y Z # 

How Soon Is Now Tabs (ver.1)

T.A.T.U
Rating:
0/5 (0 votes)

Tabs too difficult? Try these video lessons and learn fast.
                How Soon Is Now - t.A.T.u

Verse
e|-----------|
b|-----------|
g|-----3--5--|
d|--5--3--5--|
a|--5--1--3--|
E|--3--------|

Chorus
e|-----------------|
b|-----------------|
g|--8--7--5--7-----|
d|--8--7--5--7--5--|
a|--6--5--3--5--5--|
E|--------------3--|

e|-----------------|
b|-----------------|
g|-----------------|
d|--5--3--5--3--5--|
a|--5--3--5--3--5--|
E|--3--1--3--1--3--|
            
Tabs too difficult? Try these video lessons and learn fast.


comments powered by Disqus
↑ Back to top | Tablatures and chords are parodies/interpretations of the original songs. You may use it for private study, scholarship, research or language learning purposes only