» » »

Freindship Bass tabs (ver.1)

Artists:  A B C D E F G H I J K L M N O P Q R S T U V W X Y Z # 

Freindship Bass tabs (ver.1)

Tenacious D
Rating:
0/5 (0 votes)

Tabs too difficult? Try these video lessons and learn fast.
                friendship
tenacious d
drop d


(I havnt got the amount of notes right, but you can here the song and pick up when you are meant to change)

start		goes down then   nd back up
|--------------|------------|----------------|
|--------------|------------|----------------|
|-2-2-2-2-2-2--|------------|-2-2-2-2-2-2-2-2|
|--------------|--6-6-6-6-6-|----------------|

chorus
|-----------------------------------------------|
|-----------------------------------------------|
|-------------------------------2-2-2-2-2-2-----|
|-7-7-7-7-7-7-7-7--2-2-2-2-2--2-----------------|

rare and prayer bit
|----------------------------------------|
|----------------------------------------|
|---------------------------2------------|
|-7----7-----7----7-----------7-0--2-1-2-|

friends will be frinds bit
|------------------|----|-------|
|------------------|-x2-|-------|
|-2-------1-2-1-2-1|----|-2---4-|
|------------------|----|-------|

recird deal bit				end
|------------------------------------------|----|
|------------------------------------------|----|
|------------------------------------------|----|
|-2-2-2-2-2--2-2-2-2-2-2-2-2--2-2-2-2-2-etc|--2~|

~let ring
            
Tabs too difficult? Try these video lessons and learn fast.




comments powered by Disqus
↑ Back to top | Tablatures and chords are parodies/interpretations of the original songs. You may use it for private study, scholarship, research or language learning purposes only