» » »

Kickapoo Tabs (ver.4)

Artists:  A B C D E F G H I J K L M N O P Q R S T U V W X Y Z # 

Kickapoo Tabs (ver.4)

Tenacious D
Rating:
0/5 (0 votes)

Tabs too difficult? Try these video lessons and learn fast.
                (Intro)
Okay, here's what I've figured out for the first minute or so of "Kickapoo," the first 
the MTV.com Leak of the album, so it might be off...

e|--1--1--1--1--1--3--1--1--0--1------------------:
B|--3--3--3--3--3--3--3--3--3--3------------------:
G|--2--2--2--2--2--2--2--2--2--2------------------:
D|------------------------------------------------:    X's 2
A|------------------------------------------------:
E|------------------------------------------------:

e|------------------------------------------------:
B|--1--1--1--1--1--3--1--1--0--1------------------:
G|--2--2--2--2--2--2--2--2--2--2------------------:
D|--2--2--2--2--2--2--2--2--2--2------------------:    X's 2
A|------------------------------------------------:
E|------------------------------------------------:

e|------------------------------------------------:
B|--1--1--1--1--1--3--1--1--0--1------------------:
G|--2--2--2--2--2--2--2--2--2--2------------------:
D|--3--3--3--3--3--3--3--3--3--3------------------:
A|------------------------------------------------:
E|------------------------------------------------:

e|-------------------3--3--3--3--3----------------:
B|--1--1--1--1--1----3--3--3--3--3----------------:
G|--0--0--0--0--0----0--0--0--0--0----------------:
D|--2--2--2--2--2----0--0--0--0--0----------------:
A|--3--3--3--3--3----2--2--2--2--2----------------:
E|-------------------3--3--3--3--3----------------:

Repeat this whole section 3 or 4 times I think (you have to listen to it) and then go 
this rocking section...


e|------------------------------------------------:------- \
B|------------------------------------------------: ------ \
G|------------------------------------------------:  ----- \
D|--7-7-7-7-7-7-7---10-10-10-10-10-10-10----------:   ---- \
A|--7-7-7-7-7-7-7---10-10-10-10-10-10-10----------:    --- \
E|--5-5-5-5-5-5-5---8--8--8--8--8--8--8-----------:     -- \
                                                        Whole thing X's 2
e|------------------------------------------------------- \      /
B|------------------------------------------------------- \     /
G|------------------------------------------------------- \    /
D|--5-5-5-5-5-5-5---8-8-8-8-8-8-8------------------------ \   /
A|--5-5-5-5-5-5-5---8-8-8-8-8-8-8------------------------ \  /
E|--3-3-3-3-3-3-3---6-6-6-6-6-6-6------------------------ \ /

e|------------------------------------------------:
B|------------------------------------------------:
G|------------------------------------------------:
D|--7-x-7-x-7-x-7-x-7-/-9-/-10-x-10-\-5-x-5-------:    X's 4
A|--7-x-7-x-7-x-7-x-7-/-9-/-10-x-10-\-5-x-5-------:
E|--5-x-5-x-5-x-5-x-5-/-7-/-8--x-8--\-3-x-3-------:

End on

e|-----------------------------:
B|-----------------------------:
G|-----------------------------:
D|--7-7-7-7-7-7-7-7------------:
A|--7-7-7-7-7-7-7-7------------:
E|--5-5-5-5-5-5-5-5------------:

That's all I have so far. I'll add more when I figure out the other parts of the song. Enjoy!
            
Tabs too difficult? Try these video lessons and learn fast.


comments powered by Disqus
↑ Back to top | Tablatures and chords are parodies/interpretations of the original songs. You may use it for private study, scholarship, research or language learning purposes only