» » »

Master Exploder Bass tabs (ver.1)

Artists:  A B C D E F G H I J K L M N O P Q R S T U V W X Y Z # 

Master Exploder Bass tabs (ver.1)

Tenacious D
Rating:
0/5 (0 votes)

Tabs too difficult? Try these video lessons and learn fast.
                Song Title: Master Exploder
Artist Name: Tenacious D

This song is one of the coolset songs by Tenacious D in my opinion. My friend knew how
play it on guitar and I figured out the bass for the song. I do not believe that there is
bass in this song, like very many other Tenacious D songs, but i really don't care. The 
makes it sound a whole lot better. So here it is and enjoy!

INTRO:
G|-----------------------------|
D|-----------------------------|
A|-77777777~--------5----------|
E|--------------3-3---5-5--7---|

VERSE: (same as intro)
G|-----------------------------|
D|-----------------------------|
A|-77777777~--------5----------|
E|--------------3-3---5-5--7---|

Continue to play this main riff. During the movie, the whole look and atmosphere of the
gradually gets more heavy and cooler. So at 1:12, you can add any distortion you think
right with the heaviness of the song. I personally use a big muff which sounds excellent 
me. While you're playing this song, continue to keep on playing the main riff....

....Until here at 2:15


BREAKDOWN:
G|--------------------------------|
D|--------------------------------|
A|-777-----555-----333------------|
E|-----777-----555-----333-33320--|

That's just about it for this song. Fairly easy song to play so i hope you enjoy playing
song. If you have any questions, please contact me at my e-mail address listed at the
of the page. HAPPY ROCKING!!!!!
            
Tabs too difficult? Try these video lessons and learn fast.


comments powered by Disqus
↑ Back to top | Tablatures and chords are parodies/interpretations of the original songs. You may use it for private study, scholarship, research or language learning purposes only