>
 >
Pick Of Destiny

Pick Of Destiny Ukulele

Tenacious D - Pick Of Destiny chords, tabs, tablatures, lyrics

Guitar lessons | Add/correct | Request | Top 50 tabs Artists:  A B C D E F G H I J K L M N O P Q R S T U V W X Y Z 0-9

Pick Of Destiny Ukulele – Tenacious D

CD, Sheet music, Poster

Do you like Pick Of Destiny? Share with your friends now
Bass TabsChordsChords v2Chords v3Chords v4TabsTabs v2Tabs v3Tabs v4Tabs v5Ukulele
...POD... by Tenacious D
---------...............

*from 'The Pick of Destiny' (2006)*


*(Am Riff):


    Am     G* Am        G* Am
e|--0--0---0--0--|--0---0--0--0--|
B|--1--1---0--1--|--1---0--1--1--|
G|--2--2---0--2--|--2---0--2--2--|
D|--2--2---0--2--|--2---0--2--2--|
A|--0--0---0--0--|--0---0--0--0--|
E|---------------|---------------|

(Play this Riff whenever Am* is shown)

*(Guitar 2):

    Am G* Am                     G     Fmaj7       G
e|-----------|----------------------|-----------------|--------------------|
B|-----------|----------------------|-----------------|--------------------|
G|--2--0--2--|--2-------------------|-----------------|--------------------|
D|--2--0--2--|--2-------------------|-----------------|--------------------|
A|--0--0--0--|--0-------0-3-2-0-----|-----3-3-2-0-----|--0-2-----3-2-0-----|
E|-----------|-----0-3-----------3--|--1-----------3--|-------3---------3--|

Chorus 1: (with Riffs)

(n.C)          Am*              G
 'Cos it's the Pick Of Destiny, child,
    Fmaj7                             G
You know it will be rocking 'cos it's fuckin' insane.
              Am*             G
'Cos it's the Pick Of Destiny,
     Fmaj7                        G
More precious than a diamond on a platinum chain.

Verse 1:

Am*                                         G
 In Venice Beach there was a man named Kage,
F                           G
 When he was busking he was all of the rage.
Am*                                   G
 He met Jables and he taught him well;
F                                G
 All the techniques that were de-veloped in Hell.

Am*                                G
 Cock push-ups and the power slide,
F                           G
 Gig simulation now there's nowhere to hide.
Am*                                        G
 They formed a band they named Tenacious D,
F                              G
 And then they got the Pick Of Destiny.

Chorus 2: (with Riffs)

              Am*              G
'Cos it's the Pick Of Destiny, child,
    Fmaj7                             G
You know it will be rocking 'cos it's fuckin' insane.
              Am*              G
'Cos it's the Pick Of Destiny, child,
    Fmaj7                         G
Our tasty moves are better than a chicken Chow Mien.

Bridge 1:

     Fmaj7                G
'Cos he who is sleazy, is easy to please-y,
    Fmaj7                  G
And she who is juicy, must be Loose-y Goose-y
    Fmaj7                  G                          Am  G  F  Am, E7
And he who is groovy, will be in my movie, so come on.

Break:

    Dm
The wizard and the demon had a Battle Royale,
    Am
The demon almost killed him with an evil ka-pow.
    C                                    G               (n.C)
But then he broke his tooth and thus the Demon said 'ow'!

Chorus 3:

              Am*              G
'Cos it's the Pick Of Destiny, child,
    Fmaj7                             G
You know it will be rocking 'cos it's fuckin' insane.
              Am*              G
'Cos it's the Pick Of Destiny, child,
    Fmaj7                           G
You know our Boogie's better than-a Citizen Kane.

Bridge 2:

     Fmaj7                   G
'Cos he who's a geezer, must live in my freezer,
    Fmaj7                 G
And she who is Snarky, is full of malarkey.
    Fmaj7                  G
And he who is groovy, will be in my movie, so come on.

Solo:

    Am*                 G           F                   G
e|------------|---------0--------|-------------------|--------------|
B|-------1b2--|------------1-----|--3b4--1-3-3-1-----|--0-0-0-0-----|
G|--0-2-------|--2-0-2--------2--|----------------2--|-----------2--|
D|------------|------------------|-------------------|--------------|
A|------------|------------------|-------------------|--------------|
E|------------|------------------|-------------------|--------------|

    Am*                          G
e|-------------------|----------------|
B|--0--0-0--6-5h6/8--|--10-8-10--5/6--|
G|-------------------|----------------|
D|-------------------|----------------|
A|-------------------|----------------|
E|-------------------|----------------|

    F
e|--0---0-0-0----0--0--0------0--0--0-----0--0---|
B|--6/8-8-8-8/10-10-10-10/12--12-12-12/13-13-13--|
G|-----------------------------------------------|
D|-----------------------------------------------|
A|-----------------------------------------------|
E|-----------------------------------------------|

    G
e|--0-----0--0--0-----0--0--0--0--0-----|
B|--13/15-15-15-15/17-17-17-17-17-17-1--|
G|--------------------------------------|
D|--------------------------------------|
A|--------------------------------------|
E|--------------------------------------|

Bridge 3:

     Fmaj7                  G
'Cos if you're a diva, then go to Geneva,
    Fmaj7                   G
And if you're a crony, then suck on my boney.
    Fmaj7                   G
And if you are groovy, then get in my movie, it's called...

Outro:

    Fmaj7 C  G   E7 Am
The Pick  Of Des-ti-ny,
    Fmaj7 C  G   E7 Am
The Pick  Of Des-ti-ny.


CHORD DIAGRAMS:
---------------

   Am      G*      G      Fmaj7    F       E7      Dm      C

 EADGBE  EADGBE  EADGBE  EADGBE  EADGBE  EADGBE  EADGBE  EADGBE
 x02210  000000  320003  133200  133211  020100  xx0231  x32010





Comments


Popular Tenacious D tabs & chords
Metal 2 Bass Tabs
Friendship Drum Tabs
Kielbasa Drum Tabs
Baby Tabs
Hbo Episode 3 Tabs
Master Exploder 2 Tabs
To Be The Best Tabs
Who Medley Live Tabs
Deth Starr Ukulele
Rize Of The Fenix Ukulele


Song lyrics



↑ Back to top | Tablatures and chords are parodies/interpretations of the original songs. You may use it for private study, scholarship, research or language learning purposes only
© 2014 AZChords.com Contact us | Privacy policy | DMCA | Add/correct tabs | Request tabs | Top 50 tabs