» » »

Boot Camp Bass tabs (ver.2)

Artists:  A B C D E F G H I J K L M N O P Q R S T U V W X Y Z # 

Boot Camp Bass tabs (ver.2)

Soundgarden
Rating:
0/5 (0 votes)

Tabs too difficult? Try these video lessons and learn fast.
                ----------------------------------------------------------------------------------------------------

Bassist: Ben Shepherd
Tuning: Drop-D (D-A-D-G)

*Author's Note: (12/8/2013) There are quite a few variations here, and it's hard to figure out where
to draw the line between necessary and unnecessary for inclusion. So I used my best judgement. I've
included some optional hard-to-hear fills in parenthesis in the tab. I'd be more than happy to make
adjustments and revisions to the tab. If you have any corrections or suggestions, contact me on here

____________________________________________________________________________________________________


INTRO(Played Lightly) [0:00]
G|--------------|--------------|--------------|--------------|
D|--------------|--------------|--------------|--------------|
A|-5------------|--------------|--------------|--------------|
D|--------------|--------------|--------------|--------------|
 
 [0:15]
 |--------------|--------------|--------------|--------------|--------------|--------------|
 |--------------|-3------------|/12-----------|--------------|-6------------|-8------------|
 |\3------------|--------------|--------------|-8------------|--------------|--------------|
 |--------------|--------------|--------------|--------------|--------------|--------------|


VERSE 1 [0:37]
G|----------------|----------------|----------------|---------------|
D|----------------|----------------|----------------|---------------|
A|-------10h12----|-------12p10----|-------10-12----|------10p8---7-|
D|-0---0----------|-0---0----------|-0---0----------|-0--0----------|

[0:52] 
|--------------|--------------|--------------|--------------|--------------|--------------|
|--------------|--------------|--------------|--------------|--------------|--------------|
|-3------------|-8------------|-5------------|-8------------|--------------|--------------|
|--------------|--------------|(0)-----------|--------------|-6------------|-8------------|


VERSE 2 [1:15]
G|--------------|--------------|--------------|--------------|
D|--------------|-----12-------|--------------|--------------|
A|-----10-12----|--------10----|-----10-12----|-----10-8---7-|
D|-0------------|-0------------|-0------------|-0------------|

[1:30] 
|-------------|-------------|-------------|-------------|-------------------|-------------------|
|-------------|-------------|-------------|-------------|-------------------|-------------------|
|-3-----------|-8-----------|-5-----------|-8-----------|11--(1111-11-11-11)|13--(1313-13-13-13)|
|-------------|-------------|(0)----------|-------------|-------------------|-------------------|
                                                                ^11's                ^13's

PRE-CHORUS [1:52]
G|--------------|-----------------|
D|--------------|-----------------|
A|----(10h12)---|----(10-12-10-12)|
D|-0------------|-0---------------|


CHORUS [2:00]                                              
G|--------------|--------------|--------------|--------------|    
D|--------------|--------------|--------------|--------------|
A|-3-----------\|--------------|--------------|-6------------| x2
D|--------------|-2------------|-3------------|-6------------|
 
[2:15]                                                             [2:29 to 2:44]
|--------------|--------------|--------------|--------------|    |----------------|
|--------------|--------------|--------------|-13-----------|    |----------------|
|-3------------|-7------------|-8------------|-11-----------| x2 |----------------|
|--------------|--------------|--------------|--------------|then|-0-[let ring]---|


END [2:45 to END]
G|--------------||
D|--------------||
A|-3-[let ring]-||
D|--------------||

__________________________________________________________
TABLATURE KEY:
(): Optional/Faint or Hard-to-Hear Notes
 h: Hammer-On
 p: Pull-Off
 /: Slide Up
 \: Slide down
----------------------------------------------------------
To make a suggestion or correction:
Or on Twitter: @TheBrokeBassist
----------------------------------------------------------
            
Tabs too difficult? Try these video lessons and learn fast.




comments powered by Disqus
↑ Back to top | Tablatures and chords are parodies/interpretations of the original songs. You may use it for private study, scholarship, research or language learning purposes only