» » »

Plenty More Bass tabs (ver.1)

Artists:  A B C D E F G H I J K L M N O P Q R S T U V W X Y Z # 

Plenty More Bass tabs (ver.1)

Ub40
Rating:
5/5 (1 vote)
Tabs too difficult? Try these video lessons and learn fast.
                    Title - Plenty More
    Artist - UB40
    Album - Who You Fighting For


    main riff
  G|-----------------------------------------------------------------------|
  D|-----------------------------------------------------------------------|
  A|--3-3--------------3-3------------5-5-5-7-8-7-5--3-3-------------------|
  E|-------5-5-3-3-5-------5-5-3-3-5----------------------5-5-3-3-5--------|

  G|-----------------------------------------------------------------------|
  D|-----------------------------------------------------------------------|
  A|--5-5--------------3-3------------5-5-5-7-8-7-5--3----3-/-7-\-3--------|
  E|-------5-5-3-3-5-------5-5-3-3-5--------------------5------------------|
                                                             slide up & down

   repeat thro'out song until Astro's toasting then play...

  G|-----------------------------------------------------------------------|
  D|-----------------------------------------------------------------------|
  A|--3-3--------------3-3------------5-5-5-7-8-7-5--3-3-------------------|
  E|-------5-5-3-3-5-------5-5-3-3-5----------------------5-5-3-3-5--------|

  G|--------------------------------------------------------------------|
  D|--------------------------------------------------------------------|
  A|--3-3--------------3-3------------5-5-5-7-8-7-5--3---3-3------------|
  E|-------5-5-3-3-5-------5-5-3-3-5-------------------------5-5-3-3-5--|
            
Tabs too difficult? Try these video lessons and learn fast.


comments powered by Disqus
↑ Back to top | Tablatures and chords are parodies/interpretations of the original songs. You may use it for private study, scholarship, research or language learning purposes only