» » »

Data Tabs (ver.1)

Artists:  A B C D E F G H I J K L M N O P Q R S T U V W X Y Z # 

Data Tabs (ver.1)

Unwound
Rating:
0/5 (0 votes)

Tabs too difficult? Try these video lessons and learn fast.
                UNWOUND - DATA

e|--------------------------------------------|
B|-0--0-0-0-0--0--0-0--0--0--0-0-0-0--0-0--0--|
G|--------------------------------------------|
D|-11-11111111-11-1111-11-11-11111111-1111-11-| x4
A|-9--9-9-9-9--9--9-9--9--9--9-9-9-9--9-9--9--|
E|--------------------------------------------|

e|----------------------|
B|-10---------10--------|
G|----------------------|
D|----------------------| x4
A|-----12--9--------12--|
E|----------------------|

e|---------------------------12121212121212121212121212121212----------|
B|-111111111111-141414141414----------------------------------14141414-|
G|---------------------------------------------------------------------|
D|---------------------------------------------------------------------|
A|---------------------------------------------------------------------|
E|---------------------------------------------------------------------|

e|-------------------------------------------------------------|
B|-11111111111111111111/12/13/14/15/16/17/18/19/20/21/22/23----|
G|-------------------------------------------------------------|
D|-------------------------------------------------------------|
A|-------------------------------------------------------------|
E|-------------------------------------------------------------|

e|--------------------------------------------|
B|-0--0-0-0-0--0--0-0--0--0--0-0-0-0--0-0--0--|
G|--------------------------------------------|
D|-11-11111111-11-1111-11-11-11111111-1111-11-| x2
A|-9--9-9-9-9--9--9-9--9--9--9-9-9-9--9-9--9--|
E|--------------------------------------------|

e|----------------------|
B|-10---------10--------|
G|----------------------|
D|----------------------| x4
A|-----12--9--------12--|
E|----------------------|

e|---------------------------12121212121212121212121212121212----------|
B|-111111111111-141414141414----------------------------------14141414-|
G|---------------------------------------------------------------------|
D|---------------------------------------------------------------------|
A|---------------------------------------------------------------------|
E|---------------------------------------------------------------------|

e|-------------------------------------------------------------|
B|-11111111111111111111/12/13/14/15/16/17/18/19/20/21/22/23----|
G|-------------------------------------------------------------|
D|-------------------------------------------------------------|
A|-------------------------------------------------------------|
E|-------------------------------------------------------------|

e|--------------------------------------------|
B|-0--0-0-0-0--0--0-0--0--0--0-0-0-0--0-0--0--|
G|--------------------------------------------|
D|-11-11111111-11-1111-11-11-11111111-1111-11-| x2
A|-9--9-9-9-9--9--9-9--9--9--9-9-9-9--9-9--9--|
E|--------------------------------------------|

e|----------------------|
B|-10---------10--------|
G|----------------------|
D|----------------------| x4
A|-----12--9--------12--|
E|----------------------|

e|---------------------------12121212121212121212121212121212----------|
B|-111111111111-141414141414----------------------------------14141414-|
G|---------------------------------------------------------------------|
D|---------------------------------------------------------------------|
A|---------------------------------------------------------------------|
E|---------------------------------------------------------------------|

e|-------------------------------------------------------------|
B|-11111111111111111111/12/13/14/15/16/17/18/19/20/21/22/23----|
G|-------------------------------------------------------------|
D|-------------------------------------------------------------|
A|-------------------------------------------------------------|
E|-------------------------------------------------------------|

-----------------------------------------

e|-------------------|
B|-------0--------0--|
G|-------------------|
D|----7-----7--------| x4
A|-------------------|
E|-7-----------7-----|

e|-------------------------|
B|-------------------------|
G|-------0-----------0--0--|
D|----4-----4--------2--0--|
A|-------------------------|
E|-3-----------3-0---------|

play section x3
-----------------------------------------

e|------------------------------------------------------------------------|
B|-------------------------------------------5------5---------------------|
G|--------14------12--------0--6h7p6p0--------------------7--6------7--6--|
D|-----12-----12---------7----------------2-----2-----7---7--7--7---7--7--| 
A|-14-----14------10--9----------------4----------4---0---------0---------|
E|------------------------------------------------------------------------|

play above x3

e|----------------------------------------|
B|----------------------------------------|
G|-----7--6------7--6---------------------|
D|-7---7--7--7---7--7--9BD(7)(7)(7)(7)(9)-|
A|-0---------0---------0------------------|
E|----------------------------------------|
            
Tabs too difficult? Try these video lessons and learn fast.




comments powered by Disqus
↑ Back to top | Tablatures and chords are parodies/interpretations of the original songs. You may use it for private study, scholarship, research or language learning purposes only