>
 >
A Method To Chaos

A Method To Chaos Guitar Tabs

Urban Dub - A Method To Chaos chords, tabs, tablatures, lyrics

Guitar lessons | Add/correct | Request | Top 50 tabs Artists:  A B C D E F G H I J K L M N O P Q R S T U V W X Y Z 0-9

A Method To Chaos Guitar Tabs – Urban Dub

CD, Sheet music, Poster

Do you like A Method To Chaos? Share with your friends now
ChordsTabsTabs v2Ukulele
Intro-
1.
GtrI
|----------------------------------------------|  --------------|------|
|----------------------------------------------|  --------------|------|
|----------------------------------------------|  --------------|------|
|----------------------------------------------|3x--------------|-7777-|
|----0-0-12--0-0-14--0-0-15-0-0-14--0-0-10h12--|  -0-0-12-00-14-|-7777-|
|----------------------------------------------|  --------------|-7777-|

GtrII
|-----------------------------------------------           ---------------|
|-----------------------------------------------           ---------------|
|-----------------------------------------------           -----17171717--|
|-77~-------------------------------------------2x         -----x-x-x-x---|
|-77~-------------------------------------------           -----15151515--|
|-77~-------------------------------------------           ---------------|

2.
GtrI
|-------------------------------------------|     
|-------------------------------------------|     
|-------------------------------------------|       
|-------------------------------------------|cont...
|-0-0-12--0-0-14--0-0-15-0-0-14--0-0-10h12--|      
|-------------------------------------------|       


GtrII
|--------------------------------------------------------------|
|--------------------------------------------------------------|
|-14141414141414141414141414-9999999999-9-10-10----------------|
|-x-x-x-x-x-x-x-x-x-x-x-x-x--xxxxxxxxxx-x-x--x-----------------|
|-12121212121212121212121212-7777777777-7/8--8\----------------|
|--------------------------------------------------------------|


|---------------------------------------------------------| 
|---------------------------------------------------------|
|-5555555555555555-77777777777777777----------------------|
|-xxxxxxxxxxxxxxxx-xxxxxxxxxxxxxxxxx----------------------|
|-3333333333333333-55555555555555555----------------------|
|---------------------------------------------------------|

3.

|-------------------------------------------|       --------------------| 
|-------------------------------------------|       --------------------|
|-------------------------------------------|       --------------------|   
|-------------------------------------------|cont...--------5-5-5--10~/-|
|-0-0-12--0-0-14--0-0-15-0-0-14--0-0-10h12--|       --------5-5-5--10~/-|
|-------------------------------------------|       --------5-5-5--10~/-|

|--------------------------------------------|       --------------------| 
|--------------------------------------------|       ---------------13~-/|
|-------11-------12-------14------12---------|       --------------------|
|-10-10----10-10----10-10---10-10---10-10h12-|cont.. --------------------|
|--------------------------------------------|       --------------------|
|--------------------------------------------|       --------------------|
  *  *     *  *     *  *    *  *    *   

Verse-
1
GtrI
|--------------------------------------------------------------|
|--------------------------------------------------------------|
|--------------------------------------------------------------|
|-3~-----------------------------------------------------------|
|-3~-----------------------------------------------------------|
|-3~-----------------------------------------------------------|


GtrII
|--------------------------------------------------------------|
|-10~~~~~~~~~~~~~~~~~~~~~~~~~~~~~------------------------------|
|--------------------------------------------------------------|
|--------------------------------------------------------------|
|--------------------------------------------------------------|
|--------------------------------------------------------------|


2.
|-------------------------------------------|       --------------------| 
|-------------------------------------------|       --------------------|
|-------------------------------------------|       --------------------|   
|-2~ ---------------------------------------|2x     --------5-5-5-5-----|
|-0-0-12--0-0-10--0-0-7--0-0-5--0-0-3h5-----|       --------5-5-5-5-----|
|-------------------------------------------|       --------5-5-5-5-----|

|--------------------------------------------|       --------------------| 
|--------------------------------------------|       --------------------|
|-------11-------12-------14------12---------|       -----12121212-------|
|-10-10----10-10----10-10---10-10---10-10h12-|2x     -----x-x-x-x--------|
|--------------------------------------------|       -----10101010-------|
|--------------------------------------------|       --------------------|
  *  *     *  *     *  *    *  *    *   


3.
GtrI
|--------------------------------------------------------------|
|--------------------------------------------------------------|
|--------------------------------------------------------------|
|-3-3-3-3-3~--5-5-5-5-5-~-7-7-7-7-7~---------------------------|
|-3-3-3-3-3~--5-5-5-5-5-~-7-7-7-7-7~---------------------------|
|-3-3-3-3-3~--5-5-5-5-5-~-7-7-7-7-7~---------------------------|

Pre-

|-------------------------------------------|       --------------------| 
|-------------------------------------------|       --------------------|
|-------------------------------------------|       --------------------|
|-3-3-3-3-3-3-3-3-3-5-5-5-5-5-5-5-5-5-5-5-5-|       --------------------| 
|-3-3-3-3-3-3-3-3-3-5-5-5-5-5-5-5-5-5-5-5-5-|       --------------------|
|-3-3-3-3-3-3-3-3-3-5-5-5-5-5-5-5-5-5-5-5-5-|       --------------------|

|-------------------------------------------|       --------------------| 
|-------------------------------------------|       --------------------|
|-------------------------------------------|       ------12121212------|   
|-------------------------------------------|2x     ------x-x-x-x-------|
|-0-0-12--0-0-10--0-0-7--0-0-5--0-0-3h5-----|        -----10101010------|
|-------------------------------------------|       --------------------|
  * *     * *     * *    * *    * *
Chorus-

GtrI
|-------------------------------------------|     
|-------------------------------------------|     
|-------------------------------------------|       
|-------------------------------------------|cont...
|-0-0-12--0-0-14--0-0-15-0-0-14--0-0-10h12--|      
|-------------------------------------------|       


GtrII
 Am
|--------------------------------------------------------------|
|--------------------------------------------------------------|
|-14141414141414141414141414-9999999999-9-10-10----------------|
|-x-x-x-x-x-x-x-x-x-x-x-x-x--xxxxxxxxxx-x-x--x-----------------|
|-12121212121212121212121212-7777777777-7/8--8\----------------|
|--------------------------------------------------------------|

 F                 G
|---------------------------------------------------------| 
|---------------------------------------------------------|
|-5555555555555555-77777777777777777----------------------| 
|-xxxxxxxxxxxxxxxx-xxxxxxxxxxxxxxxxx----------------------|
|-3333333333333333-55555555555555555----------------------|
|---------------------------------------------------------|

3.

|-------------------------------------------|       --------------------| 
|-------------------------------------------|       --------------------|
|-------------------------------------------|       --------------------|   
|-------------------------------------------|cont...--------5-5-5--10~/-|
|-0-0-12--0-0-14--0-0-15-0-0-14--0-0-10h12--|       --------5-5-5--10~/-|
|-------------------------------------------|       --------5-5-5--10~/-|

|--------------------------------------------|       --------------------| 
|--------------------------------------------|       ---------------13~-/|
|-------11-------12-------14------12---------|       --------------------|
|-10-10----10-10----10-10---10-10---10-10h12-|cont.. --------------------|
|--------------------------------------------|       --------------------|
|--------------------------------------------|       --------------------|
  *  *     *  *     *  *    *  *    * 
Repeat Verse-



Chorus2 Continued

|--------------------------------------------------------------|
|--------------------------------------------------------------|
|--------------------------------------------------------------|
|-3-3-3-3-3-3-5-5-5-5-5-5-5-5-7-7-7-7-7-7-7-7-7--7-7-7-7-7-7-7-|
|-3-3-3-3-3-3-5-5-5-5-5-5-5-5-7-7-7-7-7-7-7-7-7--7-7-7-7-7-7-7-|
|-3-3-3-3-3-3-5-5-5-5-5-5-5-5-7-7-7-7-7-7-7-7-7--7-7-7-7-7-7-7-|
  * *         * *             * *                * *


Chorus3(vox solo)
|--------------------------------------------------------------|
|--------------------------------------------------------------|
|--------------------------------------------------------------|
|-7~-----------------------------------------------------------|
|-7~-----------------------------------------------------------|
|-7~-----------------------------------------------------------|

|--------------------------------------------------------------|
|--------------------------------------------------------------|
|-------------------141414141414141414141414141414141414141414-|
|-------------------x-x-x-x-x-x-x-x-x-x-x-x-x-x-x-x-x-x-x-x-x--|
|--1212121212121212-121212121212121212121212121212121212121212-|
|--------------------------------------------------------------|

|------------------------------------|
|------------------------------------|
|--1717171717171717-1616161616161616-|
|--x-x-x-x-x-x-x-x---x-x-x-x-x-x-x-x-|
|--1515151515151515-1414141414141414-|
|------------------------------------|

|--------------------------------------|
|--------------------------------------|
|-141414141414141414141414141414141414-|
|-x-x-x-x-x-x-x-x-x-x-x-x-x-x-x-x-x-x--|
|-121212121212121212121212121212121212-|
|--------------------------------------|


Breakdown

|---------------|-----------------|-------------------|-----------------|
|---------------|-----------------|-------------------|-----------------|
|---------------|-----------------|-------------------|-----------------|
|-3-3-3-3-3-3-3-|-5-5-5-5-5-5-5-5-|-7-7-7-7-7-7-7-7-7-|-7-7-7-7-7-7-7-7-|
|-3-3-3-3-3-3-3-|-5-5-5-5-5-5-5-5-|-7-7-7-7-7-7-7-7-7-|-7-7-7-7-7-7-7-7-|
|-3-3-3-3-3-3-3-|-5-5-5-5-5-5-5-5-|-7-7-7-7-7-7-7-7-7-|-7-7-7-7-7-7-7-7-|
  * * * * * * *   * * * * * * * *   * * * * * * * * *   * * * * * * * * * 

|-------------------------------------------|        
|-------------------------------------------|       
|-------------------------------------------|          
|-------------------------------------------|4x     
|-0-0-12--0-0-10--0-0-7--0-0-5---0-3h5------|        
|-------------------------------------------|
  * *     * *     * *    * *


Chorus-

GtrI
|---------------|-----------------|-------------------|-----------------|
|---------------|-----------------|-------------------|-----------------|
|---------------|-----------------|-------------------|-----------------|
|-3-3-3-3-3-3-3-|-5-5-5-5-5-5-5-5-|-7-7-7-7-7-7-7-7-7-|-7-7-7-7-7-7-7-7-|
|-3-3-3-3-3-3-3-|-5-5-5-5-5-5-5-5-|-7-7-7-7-7-7-7-7-7-|-7-7-7-7-7-7-7-7-|
|-3-3-3-3-3-3-3-|-5-5-5-5-5-5-5-5-|-7-7-7-7-7-7-7-7-7-|-7-7-7-7-7-7-7-7-|
     


GtrII

|-----------------------------------------------------------------------|
|-----------------------------------------------------------------------|
|-5555555555555555-77777777777777777-9999999999999999-101010101010101010|
|-xxxxxxxxxxxxxxxx-xxxxxxxxxxxxxxxxx-xxxxxxxxxxxxxxxx-x-x-x-x-x-x-x-x-x-|
|-3333333333333333-55555555555555555-7777777777777777-8-8-8-8-8-8-8-8-8-|
|-----------------------------------------------------------------------|

|-----------------------------------------------------------------------|
|-----------------------------------------------------------------------|
|--101010101010101010-1212121212121212-141414141414141414--999999999999-|
|--x-x-x-x-x-x-x-x-x--x-x-x-x-x-x-x-x--x-x-x-x-x-x-x-x-x---xxxxxxxxxxxx-|
|--8-8-8-8-8-8-8-8-8--1010101010101010-121212121212121212--777777777777-|
|-----------------------------------------------------------------------|


|-----------------------------------------------------------------------|
|-----------------------------------------------------------------------|
|-1212121212121212------------------------------------------------------|
|-x-x-x-x-x-x-x-x-------------------------------------------------------|
|-1010101010101010------------------------------------------------------|
|-----------------------------------------------------------------------|


then
|--------------------------------------------------------------|
|--------------------------------------------------------------|
|--------------------------------------------------------------|
|-3-3-3-3-3-3-5-5-5-5-5-5-5-5-7-7-7-7-7-7-7-7-7--7-7-7-7-7-7-7-|
|-3-3-3-3-3-3-5-5-5-5-5-5-5-5-7-7-7-7-7-7-7-7-7--7-7-7-7-7-7-7-|
|-3-3-3-3-3-3-5-5-5-5-5-5-5-5-7-7-7-7-7-7-7-7-7--7-7-7-7-7-7-7-|
  * *         * *             * *                * *


Outro-

GtrI
|--------------------------------------------------------------|
|--------------------------------------------------------------|
|--------------------------------------------------------------|
|-3-3--xxxx----3-3----xxxx----3-3----xxxx--------3-3----xxxx---|
|-3-3--xxxx----3-3----xxxx----3-3----xxxx--------3-3----xxxx---|
|-3-3--xxxx----3-3----xxxx----3-3----xxxx--------3-3----xxxx---|
  * *         * *             * *                * *
GtrII
|-------------------------------------------|     
|-------------------------------------------|     
|-------------------------------------------|       
|-------------------------------------------|cont...
|-0-0-12--0-0-14--0-0-15-0-0-14--0-0-10h12--|      
|-------------------------------------------| 





Comments


Popular Urban Dub tabs & chords
A New Tattoo Bass Tabs
Apart Bass Tabs
Sailin Bass Tabs
Alert The Armory Chords
Frailty Chords
We Kept It Hidden 1 Chords
A New Tattoo Tabs
Fallen On Deaf Ears 4 Tabs
Frailty 2 Tabs
Stars And The Sun Ukulele


Song lyrics



↑ Back to top | Tablatures and chords are parodies/interpretations of the original songs. You may use it for private study, scholarship, research or language learning purposes only
© 2014 AZChords.com Contact us | Privacy policy | DMCA | Add/correct tabs | Request tabs | Top 50 tabs