» » »

Birthdaysong Bass tabs (ver.1)

Artists:  A B C D E F G H I J K L M N O P Q R S T U V W X Y Z # 

Birthdaysong Bass tabs (ver.1)

Useless Id
Rating:
0/5 (0 votes)

Tabs too difficult? Try these video lessons and learn fast.
                ___________________________________________________

Intro x2

A|-------2>---3>---5>---|
E|---3>-----------------|

chorus x2

A|-------2>---3>---5>---|
E|---0>-----------------|

pre chorus

A|-------22---33---55---|
E|---33-----------------|

A|-------2>---3>---5>---|
E|---3>-----------------|

chorus x2

verse

A|---3>---5>---------|
E|------------3-2-0>-|

A|---3>---5>---------|
E|------------3>--0>-|

A|---3>---5>----------3>---5>-[drums break]-5>--|
E|------------3-2-0>----------------------------|

then play intro a million times until the song ends (end on E)
have funnn.
            
Tabs too difficult? Try these video lessons and learn fast.


comments powered by Disqus
↑ Back to top | Tablatures and chords are parodies/interpretations of the original songs. You may use it for private study, scholarship, research or language learning purposes only