» » »

Pink Stars And Magazines Tabs (ver.1)

Artists:  A B C D E F G H I J K L M N O P Q R S T U V W X Y Z # 

Pink Stars And Magazines Tabs (ver.1)

Useless Id
Rating:
0/5 (0 votes)

Tabs too difficult? Try these video lessons and learn fast.
                Useless ID - Pink Stars And Magazines


      <                  
      W                  
E||--10-----------------|
B||--13b----------------|
G||---------------------|
D||---------------------|
A||---------------------|
E||---------------------|


   S   S  S   S  S   S  S   S  S   S  S   S  S   S  S   S  
------10-----10-----10-----10-----10-----10-----10-----10-|
--13b----13b----13b----13b----13b----13b----13b----13b----|
----------------------------------------------------------|
----------------------------------------------------------|
----------------------------------------------------------|
----------------------------------------------------------|


   S   S  S   S  S   S  S   S  S   S  E    E.   S  
------17-----17-----17-----17-----17-20b--20---17-|
--20b----20b----20b----20b----20b-----------------|
--------------------------------------------------|
--------------------------------------------------|
--------------------------------------------------|
--------------------------------------------------|


   |--3--|  |--3--|  |--3--|  |--3--|  |--3--|  |--3--|  |--3--|  |--3--|  
   S  S  S  S  S  S  S  S  S  S  S  S  S  S  S  S  S  S  S  S  S  S  S  S  
--20-17----17-------------------------------------------------------------|
--------20----20-17-20-17----17-------------------------------------------|
--------------------------19----19-17-19-17----17-------------------------|
--------------------------------------------19----19-17-19-17----17-------|
--------------------------------------------------------------19----19-17-|
--------------------------------------------------------------------------|


   E   E   E   S  S  E    E          
-------------------------------------||
-------------------------------------||
-------------------------------------||
--17------17-----17-18b--18b--17\----||
--17--19--17--19-17-18b--18b--17\----||
------19------19---------------------||


GOOD LUCK 
            
Tabs too difficult? Try these video lessons and learn fast.


comments powered by Disqus
↑ Back to top | Tablatures and chords are parodies/interpretations of the original songs. You may use it for private study, scholarship, research or language learning purposes only