» » »

One Last Pleasure Tabs (ver.1)

Artists:  A B C D E F G H I J K L M N O P Q R S T U V W X Y Z # 

One Last Pleasure Tabs (ver.1)

Vains Of Jenna
Rating:
0/5 (0 votes)

Tabs too difficult? Try these video lessons and learn fast.
                E||------------------------------------------------------|
B||------------------------------------------------------|
G||-9-9----------------5-5--5----------------------------|
D||-9-9--4h5p4------5-5--5--4h5-5~-----------------------|
A||-7-7----------5~---3-3--3-----------------------------|
E||------------------------------------------------------|

do that 8 times while guitar 2's solo is


E||------------------------|
B||------------------------|
G||-9--7h9p7*--9Br---------|
D||------------------------|
A||------------------------|
E||------------------------|

* do multiple times


E||-------------------|
B||-------------------|
G||-9---5---7--9------|
D||-9---5---7--9------|
A||-7---3---5--7------|
E||-------------------|


do that chord change wile the solo is

E||--------7-----------7--------7--------15Br~----|
B||--10B-------10B-----10B------------------------|
G||-----------------------------------------------|
D||-----------------------------------------------|
A||-----------------------------------------------|
E||-----------------------------------------------|

bend the 10 and hit the 7 for a while before you do the 15


E||---------------|
B||---------------|
G||-7-7--9--------|
D||-7-7--9--------|
A||-5-5--7--------|
E||---------------|
         pm


do that twice then

E||-------------|
B||-------------|
G||-7-7--5------|
D||-7-7--5------|
A||-5-5--3------|
E||-------------|
         pm

keep switching between those then go to

E||-------------0---------|
B||-------------0---------|
G||-5---------------------|
D||-5----2-2------4-------|
A||-3----2-2------4-------|
E||------0-0------2-------|


as you may have noticed i did not show how many times you hit each chord but just listen for it its easy
            
Tabs too difficult? Try these video lessons and learn fast.




comments powered by Disqus
↑ Back to top | Tablatures and chords are parodies/interpretations of the original songs. You may use it for private study, scholarship, research or language learning purposes only