» » »

Stil In Mij Tabs (ver.1)

Artists:  A B C D E F G H I J K L M N O P Q R S T U V W X Y Z # 

Stil In Mij Tabs (ver.1)

Van Dik Hout
Rating:
5/5 (2 votes)

Tabs too difficult? Try these video lessons and learn fast.
                Dit nummer is ook goed zonder de capo te spelen!

Hier de tab van "Gitaar 1":

e----------------------------|
B-----------4----------------|
G-----------6--9-------------| 2x
D-6-----4---6--9-9-99-9-9-9--|
A-6-4h6----(4)-7-7-77-7-7-7--|
E-4-------4--------(4)-(4)---|

e----7-6-4~--7-6-4~--7-6-7~--7-6-7~-|
B----7-6-4~--7-6-4~--7-6-7~--7-6-7~-|
G-----------------(9)-----(9)-------| 2x
D-(6)-----(6)-----(9)-----(9)-------|
A-(6)-----(6)-----(7)-----(7)-------|
E-(4)-----(4)-----------------------|


e--7--7p6-7----7---------------------------|
B--7--7p6-7----7---------------------------|
G--4---------4---999999-------999999-------|
D-(4)------------9999999-9-99-9999999-9-99-|
A-(4)------------7777779-9-99-7777779-9-99-|
E-(2)------------------7-7-77-------7-7-77-|


e----7-6-4~--7-6-4~--7-6-7~--7-6-7~-|
B----7-6-4~--7-6-4~--7-6-7~--7-6-7~-|
G-----------------(9)-----(9)-------| 2x
D-(6)-----(6)-----(9)-----(9)-------|
A-(6)-----(6)-----(7)-----(7)-------|
E-(4)-----(4)-----------------------|


e--7--6p7-6----7---------------------------|
B--7--6p7-6----7---------------------------|
G--4---------4---999999-------999999-------|
D-(4)------------9999999-9-99-9999999-9-99-|
A-(4)------------7777779-9-99-7777779-9-99-|
E-(2)------------------7-7-77-------7-7-77-|


Wordt vervolgd!
            
Tabs too difficult? Try these video lessons and learn fast.


comments powered by Disqus
↑ Back to top | Tablatures and chords are parodies/interpretations of the original songs. You may use it for private study, scholarship, research or language learning purposes only