» » »

Umbrella Tabs (ver.2)

Artists:  A B C D E F G H I J K L M N O P Q R S T U V W X Y Z # 

Umbrella Tabs (ver.2)

Vanilla Sky
Rating:
5/5 (1 vote)

Tabs too difficult? Try these video lessons and learn fast.
                Standard tuning.

Intro:

Rhythm Gtr. X4
(Let ring)
|-----------------------------------------------|
|-----------------------------------------------|
|-------------------------8---------------------|
|----2---------4----------8------------6--------|
|----2---------4----------6------------6--------|
|----0---------2-----------------------4--------|

Lead Gtr. X6

|---------2-2-2--------|
|--4-4-4---4-4-4-4-----|
|----------------------|
|----------------------|
|----------------------|
|----------------------|

Chorus: X2

|--7-7--7-7--7-7--7-7--2-2--2-2--4-4--4-4---|
|--7-7--7-7--7-7--7-7--2-2--2-2--4-4--4-4---|
|--9-9--9-9--8-8--8-8--3-3--3-3--4-4--4-4---|
|--9-9--9-9--9-9--9-9--4-4--4-4--6-6--6-6---|
|--7-7--7-7--9-9--9-9--4-4--4-4--6-6--6-6---|
|--0-0--0-0--7-7--7-7--2-2--2-2--4-4--4-4---|

Apres-Chorus: X2

|----------------------------------------------|
|----------------------------------------------|
|-------------------------8-8------------------|
|----2-2-------4-4--4-4---8-8-------6-6--6-6---|
|----2-2-------4-4--4-4---6-6-------6-6--6-6---|
|----0-0-------2-2--2-2-------------4-4--4-4---|

Verse: X4
(PM)
|------------------------------------------|
|------------------------------------------|
|---------------------8-8-8-8-8------------|
|-2-2-2-2-2-4-4-4-4-4-8-8-8-8-8-6-6-6-6-6--|
|-2-2-2-2-2-4-4-4-4-4-6-6-6-6-6-6-6-6-6-6--|
|-0-0-0-0-0-2-2-2-2-2-----------4-4-4-4-4--|

Chorus: X2

|--7-7--7-7--7-7--7-7--2-2--2-2--4-4--4-4---|
|--7-7--7-7--7-7--7-7--2-2--2-2--4-4--4-4---|
|--9-9--9-9--8-8--8-8--3-3--3-3--4-4--4-4---|
|--9-9--9-9--9-9--9-9--4-4--4-4--6-6--6-6---|
|--7-7--7-7--9-9--9-9--4-4--4-4--6-6--6-6---|
|--0-0--0-0--7-7--7-7--2-2--2-2--4-4--4-4---|

Apres-Chorus: X2

|------------------------------------------|
|------------------------------------------|
|---------------------8-8-8-8-8------------|
|-2-2-2-2-2-4-4-4-4-4-8-8-8-8-8-6-6-6-6-6--|
|-2-2-2-2-2-4-4-4-4-4-6-6-6-6-6-6-6-6-6-6--|
|-0-0-0-0-0-2-2-2-2-2-----------4-4-4-4-4--|

Bridge:

Rhythm Gtr. 
(Clean)                           PM......    
|----5-----7-----7-----5-----7--------------------------|
|----5-----7-----7-----5-----7---------------8---8------|
|----6-----9-----8-----6-----9-------------8-8-8-8-8----|
|----7-----9-----9-----7-----9----8--8--8--8-8-8-8-8----|
|----7-----7-----9-----7-----7----6--6--6--6-6-6-6-6----|
|----5-----------7-----5--------------------------------|
              
Lead Gtr.         
(Dist.)  
|--------------------------------|
|--------------------------------|
|--------------------------------|
|--------------------------------|
|--------------------------6-----|
|--2--4--5----5s---0-----0-------|

Chorus: X2

|--7-7--7-7--7-7--7-7--2-2--2-2--4-4--4-4---|
|--7-7--7-7--7-7--7-7--2-2--2-2--4-4--4-4---|
|--9-9--9-9--8-8--8-8--3-3--3-3--4-4--4-4---|
|--9-9--9-9--9-9--9-9--4-4--4-4--6-6--6-6---|
|--7-7--7-7--9-9--9-9--4-4--4-4--6-6--6-6---|
|--0-0--0-0--7-7--7-7--2-2--2-2--4-4--4-4---|

Apres-Chorus: X2

|--7-7--7-7--7-7--7-7--2-2--2-2--4-4--4-4---|
|--7-7--7-7--7-7--7-7--2-2--2-2--4-4--4-4---|
|--9-9--9-9--8-8--8-8--3-3--3-3--4-4--4-4---|
|--9-9--9-9--9-9--9-9--4-4--4-4--6-6--6-6---|
|--7-7--7-7--9-9--9-9--4-4--4-4--6-6--6-6---|
|--0-0--0-0--7-7--7-7--2-2--2-2--4-4--4-4---|

Outro:

Rhythm Gtr. X3
(Let ring)
|-----------------------------------------------|
|-----------------------------------------------|
|-------------------------8---------------------|
|----2---------4----------8------------6--------|
|----2---------4----------6------------6--------|
|----0---------2-----------------------4--------|

Lead Gtr. X3

|---------2-2-2--------|
|--4-4-4---4-4-4-4-----|
|----------------------|
|----------------------|
|----------------------|
|----------------------|
            
Tabs too difficult? Try these video lessons and learn fast.


comments powered by Disqus
↑ Back to top | Tablatures and chords are parodies/interpretations of the original songs. You may use it for private study, scholarship, research or language learning purposes only