» » »

Your Takin' Up Space Tabs (ver.1)

Artists:  A B C D E F G H I J K L M N O P Q R S T U V W X Y Z # 

Your Takin' Up Space Tabs (ver.1)

Van Zant
Rating:
0/5 (0 votes)

Tabs too difficult? Try these video lessons and learn fast.
                This is a really cool song, and this guitar playing here is what you hear as 
the intro and then is played throughout the song.



  intro (played untill a "a man went down")
  1-----------------
  2--3---3-- 3---3--
  3---0h2-----------
  4-0------ 0-0h3---
  5-----------------
  6---------------
  (repeat) till pre chorus)

    pre chorus

   A man    jimmy    3rd     1st   crowd  touchdown
   ----------------------------------------------
   -3---3---3---3---3---3---3---3--3---3---3---3-
   --0h2-----0h2-----0h2-----0h2----0h2-----0h2--
   0------------------------------0-------3------
   --------3-------2-------3---------------------
   ----------------------------------------------

   G   (no chord)
   Jimmy said i came to win

   Chorus
   G
   If you gonna go go all the way
   G
   if your gonna stay stand your ground
   D
   if you cant run with the big dogs
   D
   big dog let me walk you out
   A7
   if you cant lead let me by you
   G
   if you wont follow get out the way
   
   Bend this on you takin up space. (it moves fast)
   A.--3----
   E.--1----

on the next verse(shelly had her daddies) you just play the intro part up 
untill she worked two jobs then you play the pre chorus.   

   (chorus)
   
   (SOLO)
   During the solo this guitar plays this.
   you can bend this around to make it soun mor like the song
   A-3--5--3--5-
   E-1--3--1--3- 
            
Tabs too difficult? Try these video lessons and learn fast.


comments powered by Disqus
↑ Back to top | Tablatures and chords are parodies/interpretations of the original songs. You may use it for private study, scholarship, research or language learning purposes only