» » »

Krv I Znoj Tabs (ver.1)

Artists:  A B C D E F G H I J K L M N O P Q R S T U V W X Y Z # 

Krv I Znoj Tabs (ver.1)

Vatreni Poljubac
Rating:
0/5 (0 votes)

Tabs too difficult? Try these video lessons and learn fast.
                Glavni rif:
E-----------------------------------------
H-----------------------------------------
G--------------------7-7-5^0--------------
D--7-7-5-7-7-5-7-7-5-0-0-0----------------
A--0-0-0-0-0-0-0-0-0----------------------
E-----------------------------------------

Glavni rif:

Shvatices brzo znam,shvatices to i sam
Mozda jos danas,veceras il' do jutra
Mozda vec sutra

Grije nas isti zar,pali nas ista stvar
Tebe i mene,muskarce i zene,
Samo kad krene

 C     G             A     E--3-0-3-0-3-0---
Rok n rol je krv i znoj

C     G             A     E--3-0-3-0-3-0---
Rok n rol je krv i znoj

C     G             A     
Rok n rol je krv i znoj
       G            F
Moj i tvoj, tvoj i moj

E-------------------------------------
H-------------------------------------
G-------------------------------------
D--2-0---0----------------------------
A------3---3^0---3^0---3^0---3^0------
E--------------3-----3-----3------3---

G       A(glavni rif)
Krv i znoj


Svi sto nisu uz nas,doce da traze spas
Mozda jos danas,veceras il' do jutra
Mozda vec sutra

Svi sto nisu za rok,nema im spasa jok
Haos u glavi,lazna pamet ih davi
Nisu pravi

Ref:
            
Tabs too difficult? Try these video lessons and learn fast.


comments powered by Disqus
↑ Back to top | Tablatures and chords are parodies/interpretations of the original songs. You may use it for private study, scholarship, research or language learning purposes only