» » »

Suffering To Live Scared Of Love Tabs (ver.1)

Artists:  A B C D E F G H I J K L M N O P Q R S T U V W X Y Z # 

Suffering To Live Scared Of Love Tabs (ver.1)

Verse
Rating:
0/5 (0 votes)

Tabs too difficult? Try these video lessons and learn fast.
                Tuning: Half Step Down; Eb/G#/C#/F#/Bb/eb

Sup guys, my band are considering covering this song so i figured it out by ear.
We play half step down but also drop the top string as you would with drop d so
 that's the tuning i figured it out in but i'm just gonna tab it as half step down.
I'm not sure what the proper tuning is but this sounds about right.


INTRO x4                       Let ring the fourth time, obviously listen to track for timing.
                                      v
---------------------------------------|
---------------------------------------|
-44444444(44444444)-7777777777777777---|
-44444444-44444444--7777777777777777---|
-22222222-22222222--5555555555555555---|
----------33333333---------------------|
           ^
Here you can just put your finger on the third fret while still playing the power chord
but i prefer to take the highest four away.



VERSE

------------------------------------|
------------------------------------|
----------------77777777------------|  x3
-224444--554444-77777777-77777777---|
-224444--554444-55555555-77777777---|
-002222--332222----------55555555---|

-------------------------|
-------------------------|
-------------------------|
-224444--554444-2~-------|
-224444--554444-2~-------|
-002222--332222-0~-------|


INTRO x4

VERSE (Same)

BRIDGE x4
-------------------------------------|
-------------------------------------|
-55555555-22222222-------------------|
-55555555-22222222-333333333333333---|
-33333333-00000000-333333333333333---|
-------------------111111111111111---|

BREAKDOWN  "WE'RE SUFFERING TO LIVE. WE'RE SCARED OF LOVE"
-----------------------------------------|
-----------------------------------------|
------------------------------5~-5555----| x3
-2~--222~-222~-222~-3~-3333-5~-5555------|
-2~--222~-222~-222~-3~-3333-3~-3333------|
-0~--000~-000~-000~-1~-1111--------------|
PM     **       **       **

------------------------------------------|
------------------------------------------|
------------------------------5~--5~5~----| END
-2~--222~-222~-222~-3~-3333-5~--5~5~------|
-2~--222~-222~-222~-3~-3333-3~--3~3~------|
-0~--000~-000~-000~-1~-1111---------------|
PM     **       **       **


Hope it's easy for you to understand, it sounds right to me!
we will have a demo up soon!
            
Tabs too difficult? Try these video lessons and learn fast.




comments powered by Disqus
↑ Back to top | Tablatures and chords are parodies/interpretations of the original songs. You may use it for private study, scholarship, research or language learning purposes only