» » »

You're A God Tabs (ver.3)

Artists:  A B C D E F G H I J K L M N O P Q R S T U V W X Y Z # 

You're A God Tabs (ver.3)

Vertical Horizon
Rating:
0/5 (0 votes)

Tabs too difficult? Try these video lessons and learn fast.
                All Vertical Horizon songs are 1/2 down. 


intro/verse
(acoustic)
  B             Ab           F#m          E
e|-------------------------------------------|
B|-------------------------------------------|
G|----4-4----4------4-4---4------4-4------4-4|
D|----4-4----4------4-4---4------4-4------4-4|
A|2-2-2-2--2-2------x-x---x------x-x------x-x|
E|--------------4-4-----4----2-2------0-0----|


Prechorus:

"It's never again..."
  Palm Mute
e|-------------------|
B|-------------------|
G|4-4-4-4-4-6-6-6-6-6|
D|5-5-5-5-5-7-7-7-7-7|
A|5-5-5-5-5-7-7-7-7-7|
E|3-3-3-3-3-5-5-5-5-5|

Chorus:
"Cuz you're a god..."
  B         Ab        F#m       Em
e|-------------------------------------|
B|-------------------------------------|
G|---4-4-4-----4-4-4-----4-4-4---------|
D|---4-4-4-----4-4-4-----4-4-4----2-2-2|
A|2--2-2-2-----x-x-x-----x-x-x----2-2-2|
E|----------4---------2---------0-0-0-0|

Interlude:

Guitar One (rhythm)
  C#m             A5              B         B
e|---------------|---------------|---------|--------|
B|---------------|---------------|---------|--------|
G|6-6-6-6-6-6-6-6|2-2-2-2-2-2-2-2|4--------|4-------|
D|6-6-6-6-6-6-6-6|2-2-2-2-2-2-2-2|4--------|4-------|
A|4-4-4-4-4-4-4-4|0-0-0-0-0-0-0-0|2--------|2-------|
E|---------------|---------------|---------|--------|

Guitar 2 (solo)
  C#m             A5              B         B
e|-------------------------------|---------|---------|
B|-------------------------------|--7-7----|--------7|
G|9--8--6--9--------------4-4-6-4|------9-8|--9-9-8--|
D|-----------9--7--7--7----------|---------|---------|
A|-------------------------------|---------|---------|
E|-------------------------------|---------|---------|

And that's pretty much it.
            
Tabs too difficult? Try these video lessons and learn fast.




comments powered by Disqus
↑ Back to top | Tablatures and chords are parodies/interpretations of the original songs. You may use it for private study, scholarship, research or language learning purposes only