» » »

Seether Bass tabs (ver.1)

Artists:  A B C D E F G H I J K L M N O P Q R S T U V W X Y Z # 

Seether Bass tabs (ver.1)

Veruca Salt
Rating:
0/5 (0 votes)

Tabs too difficult? Try these video lessons and learn fast.
                Its a little rusty, but if you follow along with the song you can get the gist of 
it. I was surprised this hasn't been tabbed yet.

Intro
G-----------|
D-----------| (x4)
A-----------|
E-6-6-6-6-6-| 

Main riff/Chorus
G-----------------------------|
D-----------------------------|
A-------------4-4-4-4-----4-4-|
E-6-6-6-4-4-4---------6-6----6|

Verse (Seether is...)
G--------------------------------|
D--------------------------------| (x2)
A--------------------------------|
E-6-6-6-6-6-6-6-4-6-6-6-6-6-6-6-4|

G----------------------------|
D----------------------------|
A----------------------------|
E-4-4-4-4-4-4-4-4-4-4-4-4-4-4|

Pre Chorus (I tried to keep her)
G--------------------------------|
D--------------------------------|
A-----------------6-6-6-6--------| (x3)
E-6-6-6-6-3-3-3-3---------6-6-6-6|

G----------------|
D----------------|
A----------------|
E-3-3-3-3-4-4-4-4| (x1 Last time before chorus)

Chorus (Can't fight the seether...)
G-----------------------------|
D-----------------------------|   (x4)
A-------------4-4-4-4-----4-4-|
E-6-6-6-4-4-4---------6-6----6|

G-----------------|
D-----------------|
A-----------------|
E-6-6-6-6-6-6-6-6-|

Verse (Seether is...)
G--------------------------------|
D--------------------------------| (x2)
A--------------------------------|
E-6-6-6-6-6-6-6-4-6-6-6-6-6-6-6-4|

G----------------------------|
D----------------------------|
A----------------------------|
E-4-4-4-4-4-4-4-4-4-4-4-4-4-4|

Bridge (Keep her down...)
G---------------------------------|
D---------------------------------|
A-----------------4-4-4-4-4-4-4-4-|
E-6-6-6-6-6-6-6-6-----------------|

G----------------------------------------|
D----------------------------------------|
A-6-6-6-6-6-6-6-6-4-4-4-4-4-4-4-4-6-6-6-6|
E----------------------------------------|

Bridge Con't (No she is not...)
G----------------------------------------------------------|
D----------------------------------------------------------|
A-6-6-6-6-6-6-6-6-4-4-4-4-4-4-4-4-6-6-6-6-6-6-6-8-8-8-8-8-8|
E----------------------------------------------------------|

Guitar solo... then chorus
G-----------------------------|
D-----------------------------|
A-------------4-4-4-4-----4-4-|
E-6-6-6-4-4-4---------6-6----6|
            
Tabs too difficult? Try these video lessons and learn fast.




comments powered by Disqus
↑ Back to top | Tablatures and chords are parodies/interpretations of the original songs. You may use it for private study, scholarship, research or language learning purposes only