» » »

Spit It Out Tabs (ver.1)

Artists:  A B C D E F G H I J K L M N O P Q R S T U V W X Y Z # 

Spit It Out Tabs (ver.1)

Veto
Rating:
0/5 (0 votes)

Tabs too difficult? Try these video lessons and learn fast.
                this song is very easy, so just get right rythm :-).
use a whammy pedal with i small amount of gain. im feguering all this out myself, so 
can be som small mistakes in the power akkord part, but otherwise averything is right. Whammy= W

e---------------------------------|
b---------------------------------|
g---------------------------------|
d---------------------------------|
a-7-5-0---7-5-0W---7-5-0---7-5-8W-|
E---------------------------------|


e-------------------------------------------------------------|
b-------------------------------------------------------------|
g-------------------------------------------------------------|
d-7-7--9-9--6-5--9-9--7-7--6-5--------------------------------|
a-5-5--7-7--4-3--7-7--5-5--4-3---7-5-0--7-5-0W--7-5-0--7-5-8W-|
E-------------------------------------------------------------|


im not 100% sure about the last past of the song, but its close.
e------------------------------|
b------------------------------|
g------------------------------|
d-7-7--9-9--6-5--9-9--7-7--6-5-|
a-5-5--7-7--4-3--7-7--5-5--4-3-|
E------------------------------|
            
Tabs too difficult? Try these video lessons and learn fast.




comments powered by Disqus
↑ Back to top | Tablatures and chords are parodies/interpretations of the original songs. You may use it for private study, scholarship, research or language learning purposes only