>
 >
Borboletas

Borboletas Ukulele

Victor E Leo - Borboletas chords, tabs, tablatures, lyrics

Guitar lessons | Add/correct | Request | Top 50 tabs Artists:  A B C D E F G H I J K L M N O P Q R S T U V W X Y Z 0-9

Borboletas Ukulele – Victor E Leo

CD, Sheet music, Poster

Do you like Borboletas? Share with your friends now
ChordsTabsTabs v2Ukulele
Tom: C
Capotraste na 2ª casa           
Intro:

       Am
E|---------------------------------0-5----------|
B|---------0h1p0-------------0h1h3------3-1-1---|
G|-------2-------2---------2--------------------|
D|---0h2-----------2---0h2----------------------|
A|----------------------------------------------|
E|----------------------------------------------|


             Am                             C
E|-------------------------------------------------------------------|
B|-------------------------------------------------------------------|
G|---0-2-2-0---2-0---2-2-0---2-2-0---0-0-----0-----0-0-----0-0-------|
D|-2---------2-----2-------2-------2-----2-0---2-0-----2-0-----2-0---|
A|-------------------------------------------------------------------|
E|-------------------------------------------------------------------|


         Am                             G   C   Am    F        G
E|-------------------------------------------------1-1------3-3------------|
B|-1-1-0---1-0---1-1-0---0-1-0---------------------1-1------3-3------------|
G|-------2-----2-------2-------0-2---0-0-2-2-------2-2------4-4--4-4-5-4---|
D|-------------------------------2---0-0-2-2-----3--------5------5-5-5-5---|
A|-------------------------------------------------------------------------|
E|---------------------------------------------1--------3------------------|


Riff 1:

E|-------------|
B|---5p3-------|
G|-------4h5---|
D|-------------|
A|-------------|
E|-------------|


Riff 2:

E|-----------------|
B|---0h1p0---------|
G|---------0-0h2---|
D|-----------------|
A|-----------------|
E|-----------------|


Riff 3:

E|-------------------|
B|-------5-5-5h6-6---|
G|---4h5-------------|
D|-------------------|
A|-------------------|
E|-------------------|


Riff 4:

E|-------------------|
B|-------------------|
G|-----------0-2-2---|
D|-------0h2---------|
A|---0h2-------------|
E|-------------------|


Riff 5:             Riff 6:

E|-----------------|-------------------|
B|---------0-1-3---|-------------------|
G|-------2---------|-------------------|
D|---0h2-----------|---5-5-5-5-4-2-----|
A|-----------------|---3-3-3-3-2-0-5---|
E|-----------------|---------------3---|


   Am                       C
Percebo que o tempo já não passa
                      G     Am         (riff 1)
Você diz que não tem graça amar assim
    Am                      C
Foi tudo tão bonito, mas voou pro infinito
    G             Am
Parecido com borboletas de um jardim

(riff 2) Dm            F
           Agora você volta
     C                        G
E balança o que eu sentia por outro alguém
(riff 3) Dm                     F
           Dividido entre dois mundos
                G                  Am
Sei que estou amando mas ainda não sei quem

Refrão:
           F           C
Não sei dizer o que mudou
    G          Am
Mas nada está igual
      F                C          G            Am
Numa noite estranha a gente se estranha e fica mal
  F            C      G             Am
Você tenta provar que tudo em nós morreu
     F             C
Borboletas sempre voltam
     G             Am
E o seu jardim sou eu.
Solo

         Am
E|---12-12-12--13-13-13--12-12-12-12-12-12--13-13-13-13---|
B|---13-13-13--13-13-13--13-13-13-13-13-13--13-13-13-13---|
G|--------------------------------------------------------|
D|--------------------------------------------------------|
A|--------------------------------------------------------|
E|--------------------------------------------------------|


         C
E|-12-12-12--13-13-13--12-12-12-12-12-12--13-13-13-13---|
B|-13-13-13--13-13-13--13-13-13-13-13-13--13-13-13-13---|
G|------------------------------------------------------|
D|------------------------------------------------------|
A|------------------------------------------------------|
E|------------------------------------------------------|


         G                                               Em
E|-12-12-12--13-13-13--12-12-12-12-12-12\10--10-10-10\7-7-7---|
B|-13-13-13--13-13-13--13-13-13-13-13-13\12--12-12-12\8-8-8---|
G|------------------------------------------------------------|
D|------------------------------------------------------------|
A|------------------------------------------------------------|
E|------------------------------------------------------------|


         C   Am    F        G
E|---------------1-1------3-3------------|
B|---------------1-1------3-3------------|
G|-0-0-2-2-------2-2------4-4--4-4-5-4---|
D|-0-0-2-2-----3--------5------5-5-5-5---|
A|---------------------------------------|
E|-----------1--------3------------------|


   Am                       C
Percebo que o tempo já não passa
                      G     Am         (riff 4)
Você diz que não tem graça amar assim
    Am                      C
Foi tudo tão bonito, mas voou pro infinito
    G             Am
Parecido com borboletas de um jardim

(riff 2) Dm            F
           Agora você volta
     C                        G
E balança o que eu sentia por outro alguém
(riff 5) Dm                     F
           Dividido entre dois mundos
                G                  Am
Sei que estou amando mas ainda não sei quem.

(refrão)

F          C              (riff 6)
Não sei dizer o que mudou
    G          Am
Mas nada está igual
      F                C          G            Am
Numa noite estranha a gente se estranha e fica mal
  F            C      G             Am
Você tenta provar que tudo em nós morreu
     F             C
Borboletas sempre voltam
     G             Am
E o seu jardim sou eu.
F         C
  Sempre voltam
     G             Am
E o seu jardim sou eu.
Solo:

         Am
E|---14-14-14--15-15-15--14-14-14-14-14-14--15-15---------0---|
B|---15-15-15--15-15-15--15-15-15-15-15-15--15-15---------0---|
G|--------------------------------------------------------2---|
D|--------------------------------------------------------2---|
A|------------------------------------------------------------|
E|--------------------------------------------------\12-------|





Comments


Popular Victor E Leo tabs & chords
Aguas De Oceano Chords
Borboletas Chords
Vida Boa Chords
Borboletas Tabs
Borboletas 1 Tabs
Fada Tabs
Fotos Tabs
Lembranas De Amor Tabs
Vida Boa Tabs
Aguas De Oceano Ukulele


Song lyrics



↑ Back to top | Tablatures and chords are parodies/interpretations of the original songs. You may use it for private study, scholarship, research or language learning purposes only
© 2014 AZChords.com Contact us | Privacy policy | DMCA | Add/correct tabs | Request tabs | Top 50 tabs