» » »

A Chance Bass tabs (ver.1)

Artists:  A B C D E F G H I J K L M N O P Q R S T U V W X Y Z # 

A Chance Bass tabs (ver.1)

Victor Wooten
Rating:
5/5 (1 vote)

Tabs too difficult? Try these video lessons and learn fast.
                Victor Wooten

Verse:

G|--------5--7-7/8-7--5-----5--5h7-|--------5--7-7/8-7--5--12--10----|
D|--5--7-----------------5---------|--5--7---------------------------|
A|---------------------------------|---------------------------------|
E|---------------------------------|---------------------------------|
B|---------------------------------|---------------------------------|

G|--X--10--7-7h8-7--5-------5--5h7-|-X-10--10--8--10--5--8---12---10-|
D|---------------------5h7---------|---------------------------------|
A|---------------------------------|---------------------------------|
E|---------------------------------|---------------------------------|
B|---------------------------------|---------------------------------|

Chorus:

G|-15--13------10--12h13p12----10--|-15--13------10--12h13p12--10----|
D|---------13----------------------|---------13----------------------|
A|---------------------------------|---------------------------------|
E|---------------------------------|---------------------------------|
B|---------------------------------|---------------------------------|

G|-17--13------10--12h13p12----10--|--15--13----10--12h13p12--10--17-|
D|---------13----------------------|---------13----------------------|
A|---------------------------------|---------------------------------|
E|---------------------------------|---------------------------------|
B|---------------------------------|---------------------------------|



Rhythm Bass Line
The rhythm track is buried somewhat in the mix but I think this is correct. 
He changes it up sometimes by using octaves and fifths and muted notes, 
so it might help to play along with the CD. 
I didn.t write down how many times he plays it and stuff, but you should get it. 

Verse:

G|--------------------------------------|
D|--------------------------------------|
A|---------------33--3--1---1---3-------|
E|------1---1---------------------------|
B|--------------------------------------|

Chorus:

G|--------------------------------------|
D|-----------------------------3-3------|
A|------1-1----1-1----3-3---------------|
E|--------------------------------------|
B|--------------------------------------|
            
Tabs too difficult? Try these video lessons and learn fast.




comments powered by Disqus
↑ Back to top | Tablatures and chords are parodies/interpretations of the original songs. You may use it for private study, scholarship, research or language learning purposes only