» » »

Christmas Time Tabs (ver.3)

Artists:  A B C D E F G H I J K L M N O P Q R S T U V W X Y Z # 

Christmas Time Tabs (ver.3)

Vince Guaraldi
Rating:
0/5 (0 votes)

Tabs too difficult? Try these video lessons and learn fast.
                Christmas Time Is Here
Vince Guaraldi

Play around with the chords and strumming patterns a bit; it's not perfect or to 
time.  Post anything you think should be changed.


e|-----------------------7---------||--11---------------------------|
B|-------7-------9-------7------9--||--12--12-~12--8/9--9--------9--|
G|-------6-------8-------6------8--||--13----------7/8--8------8----|
D|----6-------7-------6-------7----||-------------------7----7------|
A|---------------------------------||-------------------------------|
E|--0-------8-------0-------8------||--0----------------8--8--------|

|--11---------------------------|-----------------0-----------------|
|--12--12-~12--8/9--9--------9--|--9--6--6--9--------6--4--4-----0--|
|--13----------8/9--9------9----|--6-----------5-----4--------4-----|
|-------------------8----8------|--6-----------4-----4--------3-----|
|-------------------------------|--8-----------------6--------------|
|--0----------------8--8--------|--7-----------5-----4--------4-----|

|--------------7---||--7---------------7--7--7--------7/8--7--|
|--2--4--2--5--7---||--8---8--8-----------9--8--8--8-------9--|
|--2--------2--6--.||--9-------------9----8--9-------------8--|
|--2--------4--6--.||--10--------10-------7--10------------7--|
|--4--------2------||--0------------------8--0-------------8--|
|--2--------2--0---||--0------------------7--0-------------7--|

|--6--4--4--7--7-------------5--5--2--2--------4--4-----------|
|--6--4--4--------9--9---/6--------------2--5-----4--------4--|
|--4-----------------7---/4--------------2--2-----2-----2-----|
|--4-----------------9---/6--------------2--2-----4-----------|
|--6-----------------8---/5--------------4--4-----3--3--------|
|--------------------7-------------------2--2-----------------|

|--11-h14--------------11---------------------------------------------|
|--12-----~12--8/9--9--12--12-~12--8/9--9--9--9-----6--6--4--4-----4--|
|--13----------7/8--8--13----------8/9-----9--6--5-----4--------4-----|
|-------------------7----------------------8--6--4-----4--------3-----|
|---------------------------------------------8--------6--------------|
|--0----------------8--0-------------------8--7--5-----4--------4-----|

               play with strumming
|--------------7--6--9--------6-6-9---------6-6-9---------6--||
|--2--4--2--5--7--7----7----7---7---7-9---7---7---7-9---7-7--||
|--2--------2--6--6-------6-----6-------6-----6-------6---6--||
|--2--------4--6---------------------------------------------||
|--4--------2------------------------------------------------||
|--2--------2--0--0-------------0-------------0-----------0--||

fin.
            
Tabs too difficult? Try these video lessons and learn fast.




comments powered by Disqus
↑ Back to top | Tablatures and chords are parodies/interpretations of the original songs. You may use it for private study, scholarship, research or language learning purposes only