» » »

The Night Has A Thousand Eyes Tabs (ver.1)

Artists:  A B C D E F G H I J K L M N O P Q R S T U V W X Y Z # 

The Night Has A Thousand Eyes Tabs (ver.1)

Vital Remains
Rating:
4/5 (1 vote)

Tabs too difficult? Try these video lessons and learn fast.
                Riff A
|------------------------------------------------------|
|------------------------------------------------------|
|------------------------------------------------------|
|-7--8-10---5-5--8-------------------------------------|
|-5--6--8---3-3--6---5h6p5\3/--------------------------|
|------------------------------------------------------|
						(16x)
riff B (keyboard during riff A)
|-5~-------------------------5~------------------------|
|----8-6-8----------------------8-6-8------------------|
|----------7~---6-3-------------------7~---6-3---------|
|------------------------------------------------------|
|------------------------------------------------------|
|------------------------------------------------------|
						(16x)

riff C (2:40)
|------------------------------------------------------|
|------------------------------------------------------|
|------------------------------------------------------|
|-7--5-8--8/10/11\10\8-------7--5-8--8/10/11\10\8------|
|-5--3-6--6/-8/-9\-8\6-------5--3-6--6/-8/-9\-8\6------|
|------------------------------------------------------|
						(16x)

riff B (play this together with riff C)
|-5~-------------------------5~------------------------|
|----8-6-8----------------------8-6-8------------------|
|----------7~---6-3-------------------7~---6-3---------|
|------------------------------------------------------|
|------------------------------------------------------|
|------------------------------------------------------|
						(16x)

riff B (ending keyboard riff)
|-5~-------------------------5~------------------------|
|----8-6-8----------------------8-6-8------------------|
|----------7~---6-3-------------------7~---6-3---------|
|------------------------------------------------------|
|------------------------------------------------------|
|------------------------------------------------------|
						(2x)
            
Tabs too difficult? Try these video lessons and learn fast.




comments powered by Disqus
↑ Back to top | Tablatures and chords are parodies/interpretations of the original songs. You may use it for private study, scholarship, research or language learning purposes only