» » »

Gegen Den Wind Bass tabs (ver.1)

Artists:  A B C D E F G H I J K L M N O P Q R S T U V W X Y Z # 

Gegen Den Wind Bass tabs (ver.1)

Vogelfrei
Rating:
0/5 (0 votes)

Tabs too difficult? Try these video lessons and learn fast.
                -------------------------------------------------------------------------------
-------------------------------------------------------------------------------


Tuning :E A D G



strophen:

G|---------------------------------------------------------------------------|
D|---------------------------------------------------------------------------|
A|---0-0-0-0-0-0-0-0---------------------------------3-3-3-3-3-3-3-3---------|
E|--------------------3-3-3-3-3-3-3-3-1-1-1-1-1-1-1-1------------------------|

chours:

G|---------------------------------------------------------------------------|
D|---------------------------------------------------------------------------|
A|--0-0-0-0-0-0-0-0-----------------3-3-3-3-3-3-3-3--------------------------|
E|------------------1-1-1-1-1-1-1-1-----------------3-3-3-3-3-3-3-3----------|

bridge:

G|---------------------------------------------------------------------------|
D|---------------------------------------------------------------------------|
A|--0-0-0-0-0-0-0-0-----------------3-3-3-3-3-3-3-3--------------------------|
E|------------------1-1-1-1-1-1-1-1-----------------3-3-3-3-3-3-3-3----------|
            
Tabs too difficult? Try these video lessons and learn fast.




comments powered by Disqus
↑ Back to top | Tablatures and chords are parodies/interpretations of the original songs. You may use it for private study, scholarship, research or language learning purposes only