» » »

100m/H Tabs (ver.1)

Artists:  A B C D E F G H I J K L M N O P Q R S T U V W X Y Z # 

100m/H Tabs (ver.1)

Vulgaires Machins
Rating:
0/5 (0 votes)
Tabs too difficult? Try these video lessons and learn fast.
                intro 4x
e-|----------------|
B-|----------------|
G-|--4---5---------|
D-|--4-5-5-5-5-----|
A-|--2-5-3-5-5-----|
E-|----3---3-3-----|

solo 2x (genre de solo)la guit 1 et la guit 2 fait le refrain
e-|---------------------------------------|
B-|---------------------------------------|
G-|---------------------------------------|
D-|---4--2------------------------4--2----|
A-|--------4-0-2--4-0---5-2-4-2-1---------|
E-|---------------------------------------|

refrain 2x      
e-|--------------------------------------|
B-|--------------------------------------|
G-|------------6----7---------6----------|
D-|--4----7----6(x7)7(x7)5----6(x7)4-----|
A-|--4(x7)7(x7)4----5----5(x7)4----4(x7)-|
E-|--2----5--------------3---------2-----|
Les bandit, les meurtriers...

verse (4x)       2eme parti d`la verse(x1)
e-|------------|--------------------------------------------------|
B-|------------|--------------------------------------------------|
G-|--4---5-----|--------------------------------------------------|
D-|--4-5-5-5-5-|--------------------------------------------------|
A-|--2-5-3-5-5-|-------------44444-55555-444----444---44444-22222-|
E-|----3---3-3-|-22222-55555-----------------222---333------------|

couplet            X2
e-|--------------------|--------------------------|
B-|--------------------|--------------------------|
G-|-----------6666-7777|-----------6666-77777777--|
D-|-4444-7777-6666-7777|-4444-7777-6666-77777777--|
A-|-4444-7777-4444-5555|-4444-7777-4444-55555555--|
E-|-2222-5555----------|-2222-5555----------------|

voici la suite:  refrain
                 verse
                 couplet
                 solo
                 refrain
                 intro


si y`a des question e-mailer moi
            
Tabs too difficult? Try these video lessons and learn fast.


comments powered by Disqus
↑ Back to top | Tablatures and chords are parodies/interpretations of the original songs. You may use it for private study, scholarship, research or language learning purposes only