» » »

Glued Tabs (ver.1)

Artists:  A B C D E F G H I J K L M N O P Q R S T U V W X Y Z # 

Glued Tabs (ver.1)

Wavves
Rating:
0/5 (0 votes)

Tabs too difficult? Try these video lessons and learn fast.
                Wavves - Glued

----------------------------------------------------------------------------

  Riff 1
e:-------------------------------------|
b:-------------------------------------|
g:(6)66-66-(4)44-444--1-11-1-1-1-------|
D:-7-77-77--6-66-666--2-22-------2-----|  X2
A:-7-77-77--6-66-666--2-22---------2-0-|
E:-5-55-55--4-44-444--0-00-------------|

  Riff 2
e:--------------------------------|
b:--------------------------------|
g:(6)66-66-(4)44-444--11111-11111-|
D:-7-77-77--6-66-666--22222-22222-|  X1
A:-7-77-77--6-66-666--22222-22222-|
E:-5-55-55--4-44-444--00000-00000-|


  - Riff 1  X3

  - Riff 2  X1


  Riff 3                       Riff 4
e:----------------|           |--------------|         
b:----------------|           |--------------|
g:(6)66-66--44444-|           |-111111-11111-|
D:-7-77-77--66666-|  X3       |-222222-22222-|  X2
A:-7-77-77--66666-|           |-222222-22222-|
E:-5-55-55--44444-|           |-000000-00000-|


e:------------------------------------------------------|
b:-7/9/7-9/12--7/9/7-9/12--7/9/7-9/12--7/9/7-9/12--7/12-|  Played at the
g:------------------------------------------------------|  same time as
D:------------------------------------------------------|  'Riff 4' with
A:------------------------------------------------------|  a slide.
E:------------------------------------------------------|


  - Riff 1  X2


  - Riff 2  X1


  - Riff 3  X3


  Riff 5
e:-------------------------|
b:-------------------------|
g:-11111-11111-11111-11111-|
D:-22222-22222-22222-22222-|  X5
A:-22222-22222-22222-22222-|
E:-00000-00000-00000-00000-|
   _________________
    Riff 7 played x3


  Riff 6
e:---------------------|
b:---------------------|
g:-11111-11111-11111-1-|
D:-22222-22222-22222-2-|  X1
A:-22222-22222-22222-2-|
E:-00000-00000-00000-0-|
   _________________
    Riff 7 played x3


  Riff 7
e:-12-11-9-11-9--7-|
b:-----------------|  
g:-----------------|  Played (x18 in total) 
D:-----------------|  during the Outro with 
A:-----------------|  'Riff 5' and 'Riff 6'.
E:-----------------|
            
Tabs too difficult? Try these video lessons and learn fast.




comments powered by Disqus
↑ Back to top | Tablatures and chords are parodies/interpretations of the original songs. You may use it for private study, scholarship, research or language learning purposes only