» » »

Satan Try To Stop Me Tabs (ver.1)

Artists:  A B C D E F G H I J K L M N O P Q R S T U V W X Y Z # 

Satan Try To Stop Me Tabs (ver.1)

Wavves
Rating:
3/5 (1 vote)
Tabs too difficult? Try these video lessons and learn fast.
                -------------------------------------------------------------------------------
-------------------------------------------------------------------------------

Tuning: Standard

e|-----3-3-2-2-----|
B|-----4-4-3-3-2-2-|
G|-4-4-3-3-2-2-1-1-|
D|-5-5---------2-2-|
A|-5-5-------------|
E|-3-3-------------|
"leave em dead where he stands, don't know where i'll go"

Play this progression throughout and time it.
            
Tabs too difficult? Try these video lessons and learn fast.


comments powered by Disqus
↑ Back to top | Tablatures and chords are parodies/interpretations of the original songs. You may use it for private study, scholarship, research or language learning purposes only