>
 >
Tonight

Tonight Bass Tabs

We Are Scientists - Tonight chords, tabs, tablatures, lyrics

Guitar lessons | Add/correct | Request | Top 50 tabs Artists:  A B C D E F G H I J K L M N O P Q R S T U V W X Y Z 0-9

Tonight Bass Tabs – We Are Scientists

CD, Sheet music, Poster

Do you like Tonight? Share with your friends now
Bass TabsTabs
Verse/Intro
G|---------------|
D|--4------------|
A|-----------5544|
E|22-222-5555----|

Chorus
G|-------------------------|
D|-----------------4--4----|
A|----------------5-55-----|
E|5---4---2---0--------5---|

The outro switches between the two parts below.
Part 1
G|--------------------------------|
D|--------------------------------|
A|5555555522222222--------44444444|
E|----------------55555555--------|x8

Part 2
G|------44------------------------|
D|---777-----444------------------|
A|555-----222---210000007744444---|
E|-----------------------------444|x2

Part 1 x3

Part 2 x1
Instead of playing the three G#s(4th fret E-string) at the end of Part 2, play an F#(2nd 
E-string) to finish off the song.

Not my favourite song from the album, but the bass is quite cool. I'm pretty sure Chris 
a distortion pedal, but I'm not sure which one.
Enjoy!!!





Comments


Popular We Are Scientists tabs & chords
Inaction 1 Bass Tabs
Let's See It Bass Tabs
After Hours 3 Chords
Callback Chords
Can't Lose Chords
Ghouls Tabs
It's A Hit Tabs
Mucho Mas Tabs
Nice Guys Tabs
This Scene Is Dead Tabs


Song lyrics



↑ Back to top | Tablatures and chords are parodies/interpretations of the original songs. You may use it for private study, scholarship, research or language learning purposes only
© 2014 AZChords.com Contact us | Privacy policy | DMCA | Add/correct tabs | Request tabs | Top 50 tabs