>
 >
All Or Nothing

All Or Nothing Bass Tabs

We Are The In Crowd - All Or Nothing chords, tabs, tablatures, lyrics

Guitar lessons | Add/correct | Request | Top 50 tabs Artists:  A B C D E F G H I J K L M N O P Q R S T U V W X Y Z 0-9

All Or Nothing Bass Tabs – We Are The In Crowd

CD, Sheet music, Poster

Do you like All Or Nothing? Share with your friends now
Bass TabsChordsChords v2Ukulele
Bass Player: Mike Ferri
Tuning: D A D G



| /  slide up
| \  slide down
| h  hammer-on
| p  pull-off
| ~  vibrato
| +  harmonic
| x  Mute note
|  Bend note

Intro - Bass comes in at (0:28)

G|----------------------------------------------------|
D|-9----------5---------7-----------------------------|
A|---------------------------------7------------------|
D|----------------------------------------------------|

Chorus (0:39)

G|-----------------------------------------------------|
D|-----------------------------------------------------|
A|-----------------------------------------------------|
D|-0--0--0-0-0--2--2--2-2-2--9--9--9-9-9--5--5--5-5-5--|

G|----------------------------------------------------------------|
D|----------------------------------------------------------------|
A|----------------------------------------------------------------|
D|-0--0--0-0-0--2--2--2-2-2--9--9--9-9-9--5--5--5-5-5---0---------|

Verse (1:04) 

G|----------------------------------------------------------------------|
D|----------------------------------------------------------------------|
A|-5-------------------------/10-/12------------------------------------|
D|----------2--------5----------------0--------2--------5---------------|

G|--------------------------------------------------------------|
D|--------------------------------------------------------------|
A|-0/14----14-12-14----10----10-8-10----------------4-6---------|
D|--------------------------------------7----7-5-7------2-4-5---|

Chorus (1:37)

G|--------------------------------------------------------------|
D|--------------------------------------------------------------|
A|---------------------------------------------------10\7-10\7--|
D|-0--0--0-0-0--2--2--2-2-2--9--9--9-9-9--5--5--5-5-------------|

G|--------------------------------------------------------|
D|--------------------------------------------------------|
A|-------------------------------------4-5----------------|
D|-0--0--0-0-0--2--2--2-2-2--9--9--9-9-----5--5--5-5-5-5--|

Bridge (1:58)

G|-----------------------------------------------------------------------|
D|-----------------------------------------------------------------------|
A|-------------------------------------------------------------------2---|
D|-7777-7777-7777-7777-5555-5555-5555-5555-7777-7777-7777-7777-2-4-5-----|

G|-----------------------------------------------------------------------|
D|-----------------------------------------------------------------4-5---|
A|---------------------------------------------------------------7-------|
D|-7777-7777-7777-7777-9999-9999-9999-9999-5555-5555-5555-5555-2---------|

(Notes are in groups of 4 so that its easier to count, no other reason)


Pre-Chorus (2:20)

G|------------------------------------------|
D|------------------------------------------|
A|------------------------------------------|
D|-0--------2--------9----------------------|

End Chorus (2:31)

G|-----------------------------------------------------|
D|-----------------------------------------------------|
A|-----------------------------------------------------|
D|-0--0--0-0-0--2--2--2-2-2--9--9--9-9-9--5--5--5-5-5--|

G|-----------------------------------------------------|
D|-----------------------------------------------------|
A|-----------------------------------------------------|
D|-0--0--0-0-0--2--2--2-2-2--9--9--9-9-9--5--5--5-5-5--|

G|---------------------------------------------------------------------------------||
D|---------------------------------------------------------------------------------||
A|-5555-5555-5555-5555-------------------------------------------------------------||
D|---------------------2222-2222-2222-2222-9999-9999-9999-9999-5555-5555-5555-5555-||

(Notes are in groups of 4 so that its easier to count, no other reason)

===============================================================================





Comments


Popular We Are The In Crowd tabs & chords
Exits And Entrances Bass Tabs
For The Win Bass Tabs
Come Back Home Chords
Kiss Me Again Chords
Long Live The Kids Chords
Rumor Mill 2 Chords
On Your Own Tabs
Never Be What You Want Ukulele
On Your Own Ukulele
Rumour Mill Ukulele


Song lyrics



↑ Back to top | Tablatures and chords are parodies/interpretations of the original songs. You may use it for private study, scholarship, research or language learning purposes only
© 2014 AZChords.com Contact us | Privacy policy | DMCA | Add/correct tabs | Request tabs | Top 50 tabs