» » »

Alle Meine Entchen Bass tabs (ver.2)

Artists:  A B C D E F G H I J K L M N O P Q R S T U V W X Y Z # 

Alle Meine Entchen Bass tabs (ver.2)

We Butter The Bread With Butter
Rating:
5/5 (2 votes)

Tabs too difficult? Try these video lessons and learn fast.
                Alle Meine Entchen

We Butter The Bread With Butter

bass

g------------------------------------------------------------------------|
d-----------------------------------------------------10-----------10----|
a-----7-----------7-----------8-----------8---------------8------------8-|
d--o-----7-----0-----7-----5-----7-----5-----7-----8------------5--------|

g-------------------- |
d----10-8------------ |
a---------12-10-8-7-3 |
d--0----------------- | 2x


bass BREAK DOWN....Wooooo

g------------------------------ |
d------------------------------ |
a------------------------------ |
d--0-3-2-1-0------0--0-0----0-0 | 2x


g------------------------------------ |
d------------------------------------ |
a------------------------------------ |
d--0(ring)--5(ring)--8(ring)--7(ring) |


g----------------------------------------------------------------------------|
d----------------------------------------------------------------------------|
a----------------------------------------------------------------------------|
d-0-0-0-0---0--0-0--5-5-5-5---5--5-5-5--8-8-8-8---8--8-8--7-7-7-7---7--7-7-7-|


g------------------------------------------------------------------------|
d-----------------------------------------------------10-----------10----|
a-----7-----------7-----------8-----------8---------------8------------8-|
d--o-----7-----0-----7-----5-----7-----5-----7-----8------------5--------|

g-------------------- |
d----10-8------------ |
a---------12-10-8-7-3 |
d--0----------------- | 1x

g----------------------------- |
d----------------------------- |
a--------5-7-5-7-------3-5-3-5 |
d--0-0-0---------0-0-0-------- | 8x

g------------------------------------ |
d------------------------------------ |
a------------------------------------ |
d--0(ring)--5--------8(ring)--7(ring) |

g----------------------------------------------------------------------------|
d----------------------------------------------------------------------------|
a----------------------------------------------------------------------------|
d-0-0-0-0---0--0-0--5-5-5-5---5--5-5-5--8-8-8-8---8--8-8--7-7-7-7---7--7-7-7-|


g------------------------------------------------------------------------|
d-----------------------------------------------------10-----------10----|
a-----7-----------7-----------8-----------8---------------8------------8-|
d--o-----7-----0-----7-----5-----7-----5-----7-----8------------5--------|

g-------------------- |
d----10-8------------ |
a---------12-10-8-7-3 |
d--0----------------- | 1x
            
Tabs too difficult? Try these video lessons and learn fast.


comments powered by Disqus
↑ Back to top | Tablatures and chords are parodies/interpretations of the original songs. You may use it for private study, scholarship, research or language learning purposes only