» » »

Superfhn Bananendate Tabs (ver.1)

Artists:  A B C D E F G H I J K L M N O P Q R S T U V W X Y Z # 

Superfhn Bananendate Tabs (ver.1)

We Butter The Bread With Butter
Rating:
4/5 (2 votes)
Tabs too difficult? Try these video lessons and learn fast.
                
  This song is amazing...just like sex ;D
hope you enjoy it!!!
please rate and comment. :)





D|---------------------|
A|---8/10~~~-----------|
F|---------------------|
C|---------------------| try to pinch a harmonic
G|---------------------| on the 8th then slide it to the
C|---------------------| 10th







I DONT KNOW THE EXACT STRUMMING PATTERN KEEP THAT IN MIND
BUT THESE CHORDS ARE 100% ACCURATE...sorry for caps 

D|-------------------------------|
A|-------------------------------|
F|-------------------------------| x2
C|--0-------8-----10-------5-----|
G|--0-x6----8-x6--8-x6-----5-x6--|
C|--0-------8-----7--------5-----|





-----------------------------------------------------------------




Guitar 1
D|--------------------------|
A|--------------------------|
F|--------------------------| x3
C|--------------------------|
G|-------888877778888-------|
C|--0000--------------------|

Guitar 2
D|--------------------------------------|
A|--------------------------------------|
F|--------------------------------------| 
C|--------------------------------------| those are 12's and 10th's
G|-------121212121010101012121212-------|
C|--0000--------------------------------| comes in the 3rd time


those two set of bars repeat twice!


then:

Guitar 1
D|--------------------------|
A|--------------------------|
F|--------------------------| 
C|--------------------------|
G|-------888877775555-------|
C|--0000--------------------|



Guitar 1
D|----------------------------------|
A|----------------------------------|
F|----------------------------------| 
C|----------------------------------| 
G|-------12121212101010108888-------|
C|--0000----------------------------|








--------------------------------------------------------------------



then this

its pretty tricky so it will take you abit of practice to get it right

ps: let some of them ring!



D|----------------------------------|
A|----------------------------------|
F|----------------------------------| x3
C|-000-000-0-0--------000-000-0-000-|
G|-000-000-0-0-x2-----000-000-0-000-|
C|-000-000-0-0--------000-000-0-000-|
   ... ... . . ... ... . ...






-----------------------------------------------------------------------


Both Guitars
D|---------------------------------|
A|---------------------------------|
F|---------------------------------|
C|--0--------5-------8-------7-----|
G|--0-x10----5-x10---8x10----7-x10-|
C|--0--------5-------8-------7-----|







then a lil cool solo

Guitar 1
D|--------------20~-22-15~-17~-18~-13~--17-15-12~~-10~--|
A|--15~-17~-18~-----------------------------------------|
F|------------------------------------------------------| 
C|------------------------------------------------------|
G|------------------------------------------------------|
C|------------------------------------------------------|


Guitar 2
D|----------------------------------|
A|----------------------------------|
F|----------------------------------|
C|--0---------5------8--------7-----|
G|--0-x10-----5-x10--8x10-----7-x10-|
C|--0---------5------8--------7-----|







-------------------------------------------------------------------------


for this part i only have rhythm the lead is complicated
if anyone cares to help message me or comment me

D|-------------------------|
A|-------------------------|
F|-------------------------| x3
C|-000-000-0-000-000-0-000-|
G|-000-000-0-000-000-0-000-|
C|-000-000-0-000-000-0-000-|
   ... ... . ... ... . ...





--------------------------------------------------------------------------




Guitar 1
D|-------------------------------|
A|-------------------------------|
F|-------------------------------|
C|--/17-15-14h15p14~-12~-12/17---| x2
G|-------------------------------|
C|-------------------------------|


Guitar 2 (this part is all tremolo picked) 
D|-----------------20"--22"--|
A|--15"--17"--18"------------|
F|---------------------------|
C|---------------------------|
G|---------------------------|
C|---------------------------|






------------------------------------------------------------------------






then this ccomes up :



Both guitars
D|-----------------------------|
A|-----------------------------|
F|-----------------------------|
C|-----------000-000-000-000---| x2
G|-----------000-000-000-000---|
C|--0"--8"---000-000-000-000---|
             ... ... ... ...




Then right after that is this:



D|------------------|---------------|
A|------------------|---------------|
F|------------------|---------------|
C|--0~~--8~~--------|--10-----------|
G|--0~~--8~~--------|--10-x12-------|
C|--0~~--8~~--------|--10-----------|
.






---------------------------------------------------------------------------




Timing is very tricky on this part

D|---------------------------|
A|---------------------------|
F|---------------------------| x2
C|---------------------------|
G|---------------------------|
C|----0"--8"--10"------------|







---------------------------------------------------------------------------



really cool ending 



D|----------------------------------------------------------|
A|----------------------------------------------------------|
F|----------------------------------------------------------| 
C|----------------------------------------------------------|
G|-----------------------------------------------------5-7--|
C|----0-----0-3-5-7-8---10-8-7-5-3----8-7-5-3-2----5p0------|
            
Tabs too difficult? Try these video lessons and learn fast.


comments powered by Disqus
↑ Back to top | Tablatures and chords are parodies/interpretations of the original songs. You may use it for private study, scholarship, research or language learning purposes only