» » »

Argus Tabs (ver.1)

Artists:  A B C D E F G H I J K L M N O P Q R S T U V W X Y Z # 

Argus Tabs (ver.1)

Ween
Rating:
5/5 (3 votes)

Tabs too difficult? Try these video lessons and learn fast.
                -------------------------------------------------------------------------------
-------------------------------------------------------------------------------

Tuning:  Capo 5 fret & Standard EADGBE

s means slide
h means hammer on
p means pull off
b means bend
lr means let ring

Intro


e:-------------------------------------------------------------------------|
B:--0s-----0-------------------0------0------------------------------------|
G:--2s4--4s2--0--0h2p0------0--2s4--4s2------------------------------------|
D:---------------------2-----------------0h2--0--0s4--4---5s7--5--4--4h5p4-|
A:-------------------------------------------------------------------------|
E:-------------------------------------------------------------------------|


e:--------------------------------------------------------------------------------0--------|
B:--------------------------------------------------------------------------------0--------|
G:--------------------------------------------------------------------------------0--------|
D:--------------------------------------------------------------------------------2--------|
A:-----2--4-4s5b--4------2--4--4s5b--4-------2--4----4s5b--4-------2--4--4s5b--4--2--------|
E:-0lr---------------0lr----------------0lr-------------------0lr-----------------0--------|

Verses
It follows the melody

    Em  Em7  Em  Em6add9  Em7 Em6add9  Em Em Em6add9  Em  Em7  A7  A7


     Em      Em7     Em    Em6add9      Em7    Em6add9     Em    Em    Em6add9  Em   Em7
 A7      A7
e:---0--------0------0-------0----------0--------0---------0-----0-------0------0----0-----0-------0-------|
B:---0--------0------0-------0----------0--------0---------0-----0-------0------0----0-----2--0h2--2--0h2--|
G:---0--------0------0-------0----s-----0--------0---------0-----0-------0------0----0-----0-------0-------|
D:---2--------0------2-------4----------5--------4---------2-----2-------4------2----0-----2-------2-------|
A:---2--------2------2-------4----------5--------4---------2-----2-------4------2----2-----0-------0-------|
E:---0--------0------0-------0----------0--------0---------0-----0-------0------0----0-----0-------0-------|

Melody


e:---------------------------------------------------------------------------------------------------------|
B:---------------------------------------------------------------------------------------------------------|
G:---------------------------------------------------------------------------------------------------------|
D:---2--------0------2-------4----s-----5--------4---------2-----2---s---4---s---2---0---------------------|
A:---------------------------------------------------------------------------------------------------------|
E:---------------------------------------------------------------------------------------------------------|

And then  C     Em     C     Em      C  G  B7


e:--------0-----0------0------0------0-----2---------------------------------------------------------------|
B:--------1-----0------1------0------1-----0---------------------------------------------------------------|
G:--------0-----0------0------0------0--0--2---------------------------------------------------------------|
D:--------2-----2-0h2--2------2-0h2--2--0--1---------------------------------------------------------------|
A:--------3-----2------3------2------3--2--2---------------------------------------------------------------|
E:--------x-----0------x------0------x--3--0---------------------------------------------------------------|


Em  Em7 Em  Em6add9  Em7  Em6add9   Em
yes-ter-day   we     lost   our    lives

Em   Em6add9  Em     Em7   A7
tomor-row     we   were   born

C              Em
fortune smiled upon us

C             Em
sacrifice the argus

C                 G       B7
all that he might help us see

e:--------------------------------------------------------------------------------0--------|
B:--------------------------------------------------------------------------------0--------|
G:--------------------------------------------------------------------------------0--------|
D:--------------------------------------------------------------------------------2--------|
A:-----2--4-4s5b--4------2--4--4s5b--4-------2--4----4s5b--4-------2--4--4s5b--4--2--------|
E:-0lr---------------0lr----------------0lr-------------------0lr-----------------0--------|


Em Em7  Em   Em6add9  Em7   Em6add9  Em
ma-gna  eyes   that   track   for    miles

Em  Em6add9  Em     Em7 A7
loo-king     for    di-sease

C              Em
puzzled by the mountains

C          G   B7
tricked by the sea

Chorus :

     G       F#    Em    F#       G      F#      A7         G     F#      Em     F#
     F#     B7
e:--------------------------------------------------0----------------------------------------------------2----|
B:--------------------------------------------------2----------------------------------------------------0----|
G:--------------------------------------------------0----------------------------------------------------2----|
D:------0------0------2------0------0------0------2-----------0------0------2------0------0------0-----1------|
A:----2------0------2------0------2------0------0-----------2------0------2------0------2------0-----2--------|
E:--3------2------0------2------3------2------0-----------3------2------0------2------3------2-----0----------|

           G     F#           Em     F#
and the argus is practiced compassion

          G     F#    A7
with an eye on you as one is on me

         G     F#      Em     F#
will the god grant his forgiveness

       G            F#      B7
and allow he that's lived a reason to see


e:-------------------------------------------------------------------------|
B:--0s-----0-------------------0------0------------------------------------|
G:--2s4--4s2--0--0h2p0------0--2s4--4s2------------------------------------|
D:---------------------2-----------------0h2--0--0s4--4---5s7--5--4--4h5p4-|
A:-------------------------------------------------------------------------|
E:-------------------------------------------------------------------------|


e:--------------------------------------------------------------------------------0--------|
B:--------------------------------------------------------------------------------0--------|
G:--------------------------------------------------------------------------------0--------|
D:--------------------------------------------------------------------------------2--------|
A:-----2--4-4s5b--4------2--4--4s5b--4-------2--4----4s5b--4-------2--4--4s5b--4--2--------|
E:-0lr---------------0lr----------------0lr-------------------0lr-----------------0--------|


Counting days and building walls, bells ring so's to warn
All the signs that guide us, chosen by the Argus
Tell me has chosen you

Led by form we shed our soul
Trusting like a child
See the dark face that saved us
Drink from his empty eyes

and the argus is practiced compassion
with an eye on you, as one is on me
will the god eye grant his forgiveness
letting droplets of light erupt from the sea...


Breakdown: Hammer G-C-C and strum C (sounds better on barre chords)

G
lying in beds of garlic and orchid

G
he closes an eye

G
which closes another
    Em
and in sleep he dreams

Em
of watching and looking

Em
and feather clouds dancing

Em                       G
he curls up his lid and sleeps

G
swirling with visions on man's confusion

G
all of the work

G
done just to appease him

    Em
the argus he cries

Em
though love has it's place in the sun

Em                                    G
it's only man's fear that carries him on

*solo*

e:------------------------12---13---15~--15-------------------------------------------------15-15----------------------------|
B:---------12---13---15----------------------12--13-15---------------------------------------------12--13-15-----------------|
G:----14------------------------------------------------12--14------------------------------------------------12--14---------|
D:--------------------------------------------------------------12--14--10--12br--10----10----------------------------12--14-|
A:-----------------------------------------------------------------------------------12--------------------------------------|
E:---------------------------------------------------------------------------------------------------------------------------|


e:---------------------------------------------12--------------15-15--------------------------------------------------15-15-|
B:-------------------------------------13--15b----15--13--------------12--13-15---------------------------------------------|
G:-----------------------------12--14----------------------14--------------------12--14-------------------------------------|
D:--10--12br--10----10--12s14------------------------------------------------------------12--14--10--12br--10----10---------|
A:---------------12-------------------------------------------------------------------------------------------12------------|
E:--------------------------------------------------------------------------------------------------------------------------|

                         Something like that

e:-----------------------------12-------------------15-----------------------------|
B:--12--13-15----------13--15b----15-15br-13-13~--------12--13--15--12--15--13~----|
G:-------------12--14--------------------------------------------------------------|
D:---------------------------------------------------------------------------------|
A:---------------------------------------------------------------------------------|
E:---------------------------------------------------------------------------------|

Boognish Bless
            
Tabs too difficult? Try these video lessons and learn fast.


comments powered by Disqus
↑ Back to top | Tablatures and chords are parodies/interpretations of the original songs. You may use it for private study, scholarship, research or language learning purposes only