» » »

My Name Is Jonas Bass tabs (ver.3)

Artists:  A B C D E F G H I J K L M N O P Q R S T U V W X Y Z # 

My Name Is Jonas Bass tabs (ver.3)

Weezer
Rating:
0/5 (0 votes)
Tabs too difficult? Try these video lessons and learn fast.
                (Times aren't exact, but they are close. So just listen and you'll nail it.)


My Name is Jonas......
G--------------------------------------|
D--------------------------------------|
A-2-2-2-----------------2  0.08 - 0.19-|
E------2-2-2-4-4-4-0-0-0---------------|

This Is How We feel....
G--------------------------------------|
D--------------------------------------|
A-2-2-2------------------ 0.19 - 0 .38-|
E------2-2-2-4-4-4-0-0-0---------------|

Choo-choo train left ...
G--------------------------------------|
D--------------------------------------|
A-2-2-2------------------ 0.38 - 0 .54-|
E-------4-4-4-2-2-2--------------------|

My Name is Wepeel ...
G--------------------------------------|
D--------------------------------------|
A-2-2-2-----------------2  1.02 - 1.13-|
E------2-2-2-4-4-4-0-0-0---------------|

But there still making ...
G-------------------------------------|
D-------------------------------------|
A-2-2-2------------------ 1.13 - 1.32-|
E------2-2-2-4-4-4-0-0-0--------------|

Built's not going ...
G-------------------------------------|
D-------------------------------------|
A-2-2-2------------------ 1.32 - 1.48-|
E-------4-4-4-2-2-2-------------------|

the workers are ...
G-------------------------------------|
D-------------------------------------|
A-2-2-2-7-7-7--9-9-9----- 1.48 - 2.04-|
E-------------------------------------|

yeah! ....
G-------------------------------------|
D-------------------------------------|
A-2-2-2------------------ 2.04 - 2.11-|
E-------------------------------------|

(no singin)
G-------------------------------------|
D-------------------------------------|
A-2-2-2------------------ 2.11 - 2.27-|
E-------4-4-4-2-2-2-------------------|

the workers are ...
G-------------------------------------|
D-------------------------------------|
A-2-2-2-7-7-7--9-9-9----- 2.27 - 2.42-|
E-------------------------------------|

(after Yeah Yeah Yeah)
G-------------------------------------|
D-------------------------------------|
A-2-2-2------------------ 2.42 - 2.58-|
E-------4-4-4-2-2-2-------------------|

(no singing)
G-------------------------------------|
D-------------------------------------|
A-2-2-2-7-7-7--9-9-9----- 2.58 - 3.04-|
E-------------------------------------|

My name is Jonas
G-------------------------------------|
D-------------------------------------|
A----9~------------------ 3.07 - 3.07-|
E-------------------------------------|
            
Tabs too difficult? Try these video lessons and learn fast.


comments powered by Disqus
↑ Back to top | Tablatures and chords are parodies/interpretations of the original songs. You may use it for private study, scholarship, research or language learning purposes only