» » »

Cant Hear You Coming Tabs (ver.1)

Artists:  A B C D E F G H I J K L M N O P Q R S T U V W X Y Z # 

Cant Hear You Coming Tabs (ver.1)

The Whigs
Rating:
0/5 (0 votes)

Tabs too difficult? Try these video lessons and learn fast.
                			     Can't Hear You Coming - The Whigs


Tuning: Standard (EADGBe)

e|-----------------------|
B|-----------------------|
G|-----------------------|
D|-9-9---9-9---9-9---9-9-|
A|-7-7---7-7---7-7---7-7-|
E|-0-0---0-0---0-0---0-0-|

e|-----------------|-----------------|
B|-----------------|-----------------|
G|-----------------|-----------------|    X 4
D|-9-9-9-9-9-9-9-9-|-7-7-7-7-7-7-7-7-| Strum lightly
A|-7-7-7-7-7-7-7-7-|-5-5-5-5-5-5-5-5-|
E|-----------------|-----------------|

e|-------------------------|---------------------|
B|-------------------------|---------------------|
G|-5-5-----5-----5---------|-5-----5-----5-------|
D|-5---5-----5-----5---5---|---5-----5-----5-----|
A|-3-----3-----3-----3---3-|-----3-----3-----3---|
E|-------------------------|---------------------|

e|-----------------------|
B|-----------------------|
G|-9-9---9-9---9-9---9-9-|
D|-9-9---9-9---9-9---9-9-|
A|-7-7---7-7---7-7---7-7-|
E|-----------------------|

e|-----------------|-----------------|
B|-----------------|-----------------|
G|-----------------|-----------------|    X 4
D|-9-9-9-9-9-9-9-9-|-7-7-7-7-7-7-7-7-|Strum harder than you did when you played this riff
A|-7-7-7-7-7-7-7-7-|-5-5-5-5-5-5-5-5-| earlier
E|-----------------|-----------------|

Drum Fill Thing

e|-----------------|-----------------|
B|-----------------|-----------------|
G|-----------------|-----------------|    X 4
D|-9-9-9-9-9-9-9-9-|-7-7-7-7-7-7-7-7-|
A|-7-7-7-7-7-7-7-7-|-5-5-5-5-5-5-5-5-| Strum a little bit lighter than the one right before 
E|-----------------|-----------------|   this

e|-------------------------|---------------------|
B|-------------------------|---------------------|
G|-5-5-----5-----5---------|-5-----5-----5-------|
D|-5---5-----5-----5---5---|---5-----5-----5-----|
A|-3-----3-----3-----3---3-|-----3-----3-----3---|
E|-------------------------|---------------------|

e|-----------------------|
B|-----------------------|
G|-9-9---9-9---9-9---9-9-|
D|-9-9---9-9---9-9---9-9-|
A|-7-7---7-7---7-7---7-7-|
E|-----------------------|

e|-----------------|-----------------|
B|-----------------|-----------------|
G|-----------------|-----------------|    X 12
D|-9-9-9-9-9-9-9-9-|-7-7-7-7-7-7-7-7-|Strum harder than you did when you played this riff
A|-7-7-7-7-7-7-7-7-|-5-5-5-5-5-5-5-5-| earlier
E|-----------------|-----------------|

e|-----------------------|
B|-----------------------|
G|-9-9---9-9---9-9---9-9-|
D|-9-9---9-9---9-9---9-9-|
A|-7-7---7-7---7-7---7-7-|
E|-----------------------|

A great song by the Whigs that would be simple for new guitarists to learn. Happy Learning

| /  slide up
| \  slide down
| h  hammer-on
| p  pull-off
| ~  vibrato
| +  harmonic
| x  Mute note
            
Tabs too difficult? Try these video lessons and learn fast.




comments powered by Disqus
↑ Back to top | Tablatures and chords are parodies/interpretations of the original songs. You may use it for private study, scholarship, research or language learning purposes only