» » »

Hundred Million Bass tabs (ver.1)

Artists:  A B C D E F G H I J K L M N O P Q R S T U V W X Y Z # 

Hundred Million Bass tabs (ver.1)

The Whigs
Rating:
5/5 (1 vote)

Tabs too difficult? Try these video lessons and learn fast.
                ok it's a pretty easy song but also one of the coolest bass lines I think I've ever 
so enjoy!
|--------16------------------16------------|
|-----------15-17----------------17--15----|
|------------------------------------------|
|-13/15--------------13/15-----------------|
just repeat that throughout the entire verse and chorus

the bridge

|-------------------------------------------------------|
|----------15-15-15------------17----------17-15--------|
|--------------------17-15------------------------17----|
|-15-15-15-----------------15-----15-15-15--------------|
and on the bridge with
|------------------------------|
|----------15-15-15-------17---|
|--------------------17--------|
|-15-15-15---------------------|
here ya go the tab for one of the most underrated bands I've ever seen hope you enjoy!
            
Tabs too difficult? Try these video lessons and learn fast.




comments powered by Disqus
↑ Back to top | Tablatures and chords are parodies/interpretations of the original songs. You may use it for private study, scholarship, research or language learning purposes only