» » »

I Never Want To Go Home Tabs (ver.1)

Artists:  A B C D E F G H I J K L M N O P Q R S T U V W X Y Z # 

I Never Want To Go Home Tabs (ver.1)

The Whigs
Rating:
0/5 (0 votes)

Tabs too difficult? Try these video lessons and learn fast.
                -------------------------------------------------------------------------------
                   I Never Want to Go Home-The Whigs
-------------------------------------------------------------------------------

Tuning: Standard

Main Riff (Used in intro and verses)

e|----------------------------------------------------|
B|-o--------------------------------------------------|
G|----------------------------------------------------|
D|---------------------11-11-9--9--9--9---------------|
A|-o-12-12-10-10-12-12-12-12-10-10-10-10-10-10-10-10--|
E|---14-14-12-12-14-14-------------------12-12-12-12--|

e|----------------------------------------------------|
B|--------------------------------------------------o-|
G|----------------------------------------------------|
D|--------------------11-11-9--9--9--9--9--9--9--9----|
A|--12-12-10-10-12-12-12-12-10-10-10-10-10-10-10-10-o-|
E|--14-14-12-12-14-14---------------------------------|

Chorus                  _____________________  _____________________
                       |1                     |2
e|---------------------|----------------------|---------------------|
B|---------------------|----------------------|---------------------|
G|---------------------|----------------------|---------------------|
D|--19-19--19-19\17-17-|----------------------|---------------------|
A|--21-21--21-21\19-19-|-21-21--21-19-21-21---|-21-21--21-21-21-21--|
E|---------------------|-22-22--22-21-22-22---|-22-22--22-22-22-22--|

Bridge

e|--------------------------------------------|
B|--------------------------------------------|
G|--------------------------------------------|
D|--19-21-19-21-19-21-19-21-19-21-23-19-21-23-|
A|--21-22-21-22-21-22-21-22-21-22-24-21-22-24-|
E|--------------------------------------------|

e|-----------------------------------------|
B|-----------------------------------------|
G|-----------------------------------------|
D|-23-23--23-23\21-21--21-21--21-21\19-19--|
A|-24-24--24-24\22-22--22-22--22-22\21-21--|
E|-----------------------------------------|

e|--------------------------------------|
B|--------------------------------------|
G|--------------------------------------|
D|--21-21--21-21\19-19------------------|
A|--19-19--19-19\17-17--21-21-21\19-19--|
E|----------------------22-22-22\21-21--|

e|-------------------------------------------|
B|-------------------------------------------|
G|-------------------------------------------|
D|-------------------------------------------|
A|--16-16--16-16-16-16--14-14--14-14--12-12--|
E|--17-17--17-17-17-17--15-15--15-15--14-14--|


e|---------------|
B|---------------|
G|---------------| Keep on playing this and then you go to...
D|---------------|
A|--12-12-12-12--|
E|--10-10-10-10--|

e|--2-2-2-2-2-2-2-2-|-3-3-3-3-3-3-3-3--|
B|O-3-3-3-3-3-3-3-3-|-0-0-0-0-0-0-0-0-O|
G|--2-2-2-2-2-2-2-2-|-0-0-0-0-0-0-0-0--|
D|--0-0-0-0-0-0-0-0-|-0-0-0-0-0-0-0-0--|
A|O-----------------|-2-2-2-2-2-2-2-2-O|
E|------------------|-3-3-3-3-3-3-3-3--|

e|----------------------------------------------------|
B|-O--------------------------------------------------|
G|----------------------------------------------------|
D|---------------------11-11-9--9--9--9---------------|
A|-O-12-12-10-10-12-12-12-12-10-10-10-10-10-10-10-10--|
E|---14-14-12-12-14-14-------------------12-12-12-12--|

e|----------------------------------------------------|---|
B|--------------------------------------------------O-|---|
G|----------------------------------------------------|---|
D|--------------------11-11-9--9--9--9--9--9--9--9----|-7-|
A|--12-12-10-10-12-12-12-12-10-10-10-10-10-10-10-10-O-|-5-|
E|--14-14-12-12-14-14---------------------------------|---|
|
| /  slide up
| \  slide down
| h  hammer-on
| p  pull-off
| ~  vibrato
| +  harmonic
| x  Mute note
===============================================================================
            
Tabs too difficult? Try these video lessons and learn fast.




comments powered by Disqus
↑ Back to top | Tablatures and chords are parodies/interpretations of the original songs. You may use it for private study, scholarship, research or language learning purposes only